Oops, an error
Loading. Please wait.

Memorias Tab

201 views 3 this week
no commentswrite comment
1 2 3 4 5
excellent!
x 3
add to favorites
launch autoscroll
font size
0
reset
how to read this tab
guitar tuner
Tab Pro tools
  • play this tab
  • loop segment
  • change instrument
  • show fretboard
  • metronome
Autoscroll
slow
fast
+/-
esc
set tempo
stop
Contributor
-------------------------------------------------------------------------------
                        Memorias - Nunca Digas Muere
-------------------------------------------------------------------------------


Tabbed by: Zeusimo
Myspace - http://myspace.com/jessei_f
Youtube - http://www.youtube.com/zeusimo
Twitter - http://twitter.com/zeusimo
Ultimate-Guitar - http://profile.ultimate-guitar.com/zeusimo/

Tuning: Drop C (C-G-C-F-A-D)

Not Done Yet I'll Upload Guitar 1 Later
If You Find An Error Pease Tell Me
Enjoy This Shit XD

Guitar 2                         x4
D|--------------------------------|
A|--------------------------------|
F|--------------------------------|
C|3-3-4-5-7-5-4-3-3-7-5-4-3-5-3-2-|
G|3---------------3-------3-------|
C|3---------------3-------3-------|

Guitar 2
D|-------------------------------------------------------|
A|-------------------------------------------------------|
F|-------------------------------------------------------|
C|33-3---4---5---7---5---4---3-33-7---5---4-33-5---3---2-|
G|33---0---0---0---0---0---0---33---0---0---33---0---0---|
C|33---------------------------33-----------33-----------|
  ..   .   .   .   .   .   .   ..   .   .   ..   .   .

Guitar 2
D|---------------------------------------------------|
A|---------------------------------------------------|
F|---------------------------------------------------|
C|33-3---4---5---7---5---4---3-33-7---5---4-33-5---3-|
G|33---0---0---0---0---0---0---33---0---0---33---0---|
C|33---------------------------33-----------33-------|
  ..   .   .   .   .   .   .   ..   .   .   ..   .

Guitar 2                                                x2
D|-------------------------------------------------------|
A|-------------------------------------------------------|
F|-------------------------------------------------------|
C|33-3---4---5---7---5---4---3-33-7---5---4-33-5---3---2-|
G|33---0---0---0---0---0---0---33---0---0---33---0---0---|
C|33---------------------------33-----------33-----------|
  ..   .   .   .   .   .   .   ..   .   .   ..   .   .

Guitar 2                                             x7
D|----------------------------------------------------|
A|----------------------------------------------------|
F|----------------------------------------------------|
C|0000-5-3-0000-5-3-3-4-2-3-0000-5-3-0000-7-5-3-5-2-3-|
G|0000-----0000-------------0000-----0000-------------|
C|0000-----0000-------------0000-----0000-------------|
  ....     ....             ....     ....

Guitar 2
D|------------------------------------------------------|
A|------------------------------------------------------|
F|------------------------------------------------------|
C|0000-5-3-0000-5-3-3-4-2-3-0000-5-3-0000-7-5-3-5-2-3-0-|
G|0000-----0000-------------0000-----0000-------------0-|
C|0000-----0000-------------0000-----0000-------------0-|
  ....     ....             ....     ....

Guitar 2                         x4
D|--------------------------------|
A|--------------------------------|
F|--------------------------------|
C|3-3-4-5-7-5-4-3-3-7-5-4-3-5-3-2-|
G|3---------------3-------3-------|
C|3---------------3-------3-------|

Guitar 2                                                   x2
D|----------------------------------------------------------|
A|----------------------------------------------------------|
F|----------------------------------------------------------|
C|---3---2---3---3---2---3---3----2---3---4---4---3---2---2-|
G|-----0---0---0---0---0---0--------0---0---0---0---0---0---|
C|00---------------------------00---------------------------|
  ..   .   .   .   .   .   .   ..   .   .   .   .   .   .

Guitar 2
D|--------------------------------------------------------------|
A|--------------------------------------------------------------|
F|--------------------------------------------------------------|
C|---3---3---3---3---3---3---2---2----2---3---3---5---5---5---5-|
G|-----0---0---0---0---0---0---0--------0---0---0---0---0---0---|
C|00-------------------------------00---------------------------|
  ..   .   .   .   .   .   .   .   ..   .   .   .   .   .   .

Guitar 2
D|----------------------------------------------------------|
A|----------------------------------------------------------|
F|----------------------------------------------------------|
C|---3---3---3---3---3---3---2---2----2---3---3---5---5---5-|
G|-----0---0---0---0---0---0---0--------0---0---0---0---0---|
C|00-------------------------------00-----------------------|
  ..   .   .   .   .   .   .   .   ..   .   .   .   .   .

Guitar 2                            x5
D|-----------------------------------|
A|-----------------------------------|
F|-----------------------------------|
C|-----------------------------------|
G|-----4-5-7-5-4-3-444-5555-222-3333-|
C|8888-------------------------------|

Guitar 2
D|--------------------------------|
A|--------------------------------|
F|--------------------------------|
C|--------------------------------|
G|-----4-5-7-5-4-3-444-5555-222-3-|
C|8888----------------------------|

Guitar 2                            x2
D|-----------------------------------|
A|-----------------------------------|
F|-----------------------------------|
C|-----------------------------------|
G|-----4-5-7-5-4-3-444-5555-222-3333-|
C|8888-------------------------------|

Guitar 2
D|-------------------------------------------------------|
A|-------------------------------------------------------|
F|-------------------------------------------------------|
C|33-3---4---5---7---5---4---3-33-7---5---4-33-5---3---2-|
G|33---0---0---0---0---0---0---33---0---0---33---0---0---|
C|33---------------------------33-----------33-----------|
  ..   .   .   .   .   .   .   ..   .   .   ..   .   .

Guitar 2
D|---------------------------------------------------------|
A|---------------------------------------------------------|
F|---------------------------------------------------------|
C|33-3---4---5---7---5---4---3-33-7---5---4-33-5---3---2-0-|
G|33---0---0---0---0---0---0---33---0---0---33---0---0---0-|
C|33---------------------------33-----------33-----------0-|
  ..   .   .   .   .   .   .   ..   .   .   ..   .   .   .

Guitar 2
D|--------------|
A|--------------|
F|--------------|
C|000000-0-0000-|
G|000000-0-0000-|
C|000000-0-0000-|

Guitar 2       x4
D|--------------|
A|--------------|
F|--------------|
C|000000-0-0000-|
G|000000-0-0000-|
C|000000-0-0000-|
  ...... . ....

Guitar 2                                x4
D|---------------------------------------|
A|---------------------------------------|
F|--------------t17p14t17p14t17p14t17p14-|
C|000000-0-0000--------------------------|
G|000000-0-0000--------------------------|
C|000000-0-0000--------------------------|
  ...... . ....

Guitar 2                   x3
D|--------------------------|
A|--------------------------|
F|--------------------------|
C|000000-0-0000-00000000000-|
G|000000-0-0000-00000000000-|
C|000000-0-0000-00000000000-|
  ...... . .... ...........

Guitar 2
D|---------------|
A|---------------|
F|---------------|
C|000000-0-33-44-|
G|000000-0-33-44-|
C|000000-0-33-44-|
  ...... . .. ..

Guitar 2
D|--------------------------|
A|--------------------------|
F|--------------------------|
C|--------------------------|
G|------------------222-333-|
C|77777-88888-99999---------|

Guitar 2
D|----------------------------|
A|----------------------------|
F|----------------------------|
C|----------------------------|
G|------------222-333-444-555-|
C|77777-88888-----------------|

Guitar 2
D|--------------------------|
A|--------------------------|
F|--------------------------|
C|--------------------------|
G|------------------222-333-|
C|77777-88888-99999---------|

Guitar 2
D|----------------------------|
A|----------------------------|
F|----------------------------|
C|----------------------------|
G|------------222-333-444-555-|
C|77777-88888-----------------|

Guitar 2
D|----------------------------|
A|----------------------------|
F|----------------------------|
C|----------------------------|
G|----------------55-44-33-22-|
C|777777777777777-------------|


Guitar 2
D|----------------------------|
A|----------------------------|
F|----------------------------|
C|----------------------------|
G|------------222-333-444-555-|
C|77777-88888-----------------|

Guitar 2
D|--------------------------|
A|--------------------------|
F|--------------------------|
C|--------------------------|
G|------------------222-333-|
C|77777-88888-99999---------|

Guitar 2
D|--------------------|
A|--------------------|
F|--------------------|
C|------------33-44-0-|
G|------------33-44-0-|
C|77777-88888-33-44-0-|
              .. ..
comments
We did not receive enough feedback on this tab! Please rate:
print report bad tab
1 2 3 4 5
I want to post or [tab]
guest
You may want to rate the tab now too:
select rating
Please do not post tabs as comments. Select "correction" instead!