Oops, an error
Loading. Please wait.

Maavir Daf chords

66 views 1 this week
no commentswrite comment
1 2 3 4 5
3 more votes to show rating
add to favorites
×
Save as Personal and add changes to this tab that will be seen only by you. Learn more ›
×
You can save this tab as Personal to edit and correct it or add notes. All changes will be seen only by you. Learn more »
launch autoscroll
font size
0
reset
transpose
0
reset
simplify chords
display chords
guitar tuner
edit
Autoscroll
slow
fast
+/-
esc
set tempo
stop
Author
Difficulty
Strumming
There is no strumming pattern for this song yet. and get +5 IQ
פתיחה:
   Cm            Ab                Bb                Ab                   Cm 
E|--------------------------------------------------------------------------|
B|-4---4-4-3-4-------4---4-4-3-4-------3--3-3----3--------------3-4-3-6-4---|
G|---------------------------------------------5----------5-5-5-----------5-|
D|-------------5-6---------------5-3---------------3-5----------------------|
A|--------------------------------------------------------------------------|
e|--------------------------------------------------------------------------|
   Cm            Ab                Bb                 Ab                  Cm 
E|--------------------------------------------------------------------------|
B|-4---4-4-3-4-------4---4-4-3-4---------3--3-3---3------4-4-4---3-3-3------|
G|----------------------------------------------5-----------------------5-5-|
D|-------------5-6---------------5-3----------------3-----------------------|
A|----------------------------------------------------6---------------------|
e|--------------------------------------------------------------------------|
 Cm         Fm                          Cm   
ועכשיו זה הזמן לדעת כבר מה    צפוי לנו מהשמים
 Cm                 Fm                               Cm 
האם את יודעת למה התכוונה   זאת שאמרה שהחוכמה היא כמו מים
Cm   Ab    Bb    Ab        Cm/Ab           Cm   
ונדמה שנהיינו, בלית ברירה  יותר ויותר קרובים
Cadd9  Cm                  Bb        Ab             Cm
אנחנו כמו זוג לאורך שדרה     פשוט הולכים והולכים
  Cm            Fm                        Cm  
ולאור הדברים הפשוטים באמת  אנחנו חיים את חיינו
  Cm                 Fm                                 Cm  
למשל בלי הסברים רק לקבל ולתת   זה לא קל אבל מה יש עוד בינינו?
    Ab   Bb    Ab               Cm/Ab          Cm      
אני נזכר לפעמים בילדות שהייתה   לפני זמן המחשב וההיי-טק
Cadd9  Cm                  Bb       Ab         Cm    
על פסי הרכבת מחכה לקטר      וכשהוא בא אני צועק
פזמון:
   Cm                  Bb        Ab      Cm     
כן, היו אלה חיים טובים     כמו שאומרים האופטימים
   Fm              Bb             Ab          Cm    
ולפעמים חיים מוזרים כך אומרים      המיסטיקנים הסינים
 Ab           Bb                Ab      Cm   
ואולי אלה חיים גדולים   הרי חיינו אותם בטירוף
 Cm              Bb  Ab Bb            
תסתכלי עליי ותראי     קצת שמח קצת עצוב
 Cm            Fm                            Cm    
וכשאני שוב לובשת שמלה לבנה  אתה שואל מה קרה לך ולנו
 Cm       Fm                           Cm    
הרי פעם לבשת את אותה השמלה   בנובמבר כשהתחתנו
Cm  Ab    Bb        Ab           Cm/Ab         Cm    
כן ברור לי שאת רוצה לפעמים   לחזור אל הדברים שהיו
      Cm             Bb        Ab           Cm    
גם אני רוצה את אותם הדברים    בגלל אותו הדבר בדיוק
פזמון
מעבר כמו הפתיחה
 Cm        Fm                          Cm   
ועכשיו אל תדבר רק תבוא אליי   בשקט בשקט בחדר
  Cm            Fm                         Cm     
כמו שני חברים שאבדו בחלל   שימי לב כבר אמצע נובמבר
Cm  Ab     Bb       Ab          Cm/Ab             Cm       
שוב נופלים העלים - זה הזמן השקט  מה צפוי לנו מחר לא נדע
Cm                Bb         Ab            Cm 
אני עוטף אותך בחום ורוקד     ומעביר לנו עוד דף
פזמון x2

            
            
Suggest correction
Creating personal tab
Creating personal tab
You can edit any tab online and save it as your Personal.

You can edit, replace or remove any tab part or add personal notes – all changes will be seen only by you.

Personal tabs can be accessed anytime from any device, even offline.
Learn more »
Give kudos to tab author, rate the tab!
1 2 3 4 5
comments
print report bad tab
guest
You may want to rate the tab now too:
select rating
Wanna post a correction for this tab? Suggest correction