Oops, an error
Loading. Please wait.

Razoes E Emocoes chords

by NX Zero
175 views 6 this week
no commentswrite comment
1 2 3 4 5
2 more votes to show rating
add to favorites
×
Save as Personal and add changes to this tab that will be seen only by you. Learn more ›
×
You can save this tab as Personal to edit and correct it or add notes. All changes will be seen only by you. Learn more »
launch autoscroll
font size
0
reset
transpose
0
reset
simplify chords
display chords
guitar tuner
edit
Autoscroll
slow
fast
+/-
esc
set tempo
stop
Strumming
There is no strumming pattern for this song yet. and get +5 IQ
Tabbed by: JimBlenderBR



** Capo 1st fret


- Intro: 


e|----------------------------------|
B|-5---5---5---5---5---5---5---5----|
G|---7---7---7---7---7---7---7---7--|
D|----------------------------------|
A|----------------------------------|
E|----------------------------------|


    D                               A/C#                             Bm 
e|----------------------------------------------------------------------------------------------------|
B|-5---5---5---5---8---8---7---7----5---5---5---5---8---8---7---7----5---5---5---5---8---8---7---7----|
G|---7---7---7---7---7---7---7---7----7---7---7---7---7---7---7---7----7---7---7---7---7---7---7---7--|  
D|----------------------------------------------------------------------------------------------------|
A|----------------------------------------------------------------------------------------------------|
E|----------------------------------------------------------------------------------------------------|

   A
e|----------------------------------|
B|-5---5---5---5---5---5---5---5----|
G|---7---7---7---7---7---7---7---7--|
D|----------------------------------|
A|----------------------------------|
E|----------------------------------|



Verse 1:

 D                    A/C#
Dizer o que eu posso dizer
                    Bm
Se estou cantando agora pra você
              A
Ouvir com outra pessoa

D
  É que as vezes acho
        A/C#
Que não sou o melhor pra você
Bm                           A
  Mas as vezes acho que poderíamos ser
                  E
O melhor pra nós dois
                F#    G
Só quero que saiba



Chorus:

Bm                G
Entre razões e emoções a saída
D        A
É fazer valer a pena
Bm             G
Se não agora depois não importa
D        A
Por você posso esperar



Post-Chorus:

    D                               A/C#                             Bm 
e|----------------------------------------------------------------------------------------------------|
B|-5---5---5---5---8---8---7---7----5---5---5---5---8---8---7---7----5---5---5---5---8---8---7---7----|
G|---7---7---7---7---7---7---7---7----7---7---7---7---7---7---7---7----7---7---7---7---7---7---7---7--|  
D|----------------------------------------------------------------------------------------------------|
A|----------------------------------------------------------------------------------------------------|
E|----------------------------------------------------------------------------------------------------|

   A
e|----------------------------------|
B|-5---5---5---5---5---5---5---5----|
G|---7---7---7---7---7---7---7---7--|
D|----------------------------------|
A|----------------------------------|
E|----------------------------------|



Verse 2:

 D                     A/C#
Sentir o que eu posso sentir
                  Bm
Se em um segundo tudo acabar
         A
Não vou ter como fugir

D
  É que as vezes acho
        A/C#
Que não sou o melhor pra você
Bm                         A
  Mas as vezes acho que poderíamos ser
                  E
O melhor pra nós dois
                F#   G
Só quero que saiba



Chorus:

Bm                G
Entre razões e emoções a saída
D        A
É fazer valer a pena
Bm             G
Se não agora depois não importa
D        A          G
Por você posso esperar
G
   Posso Esperar



- Intrumental: Bm Bm Bm Bm D D D A
               Bm Bm Bm Bm D D A A



- Chorus:

Bm                G
Entre razões e emoções a saída
D        A
É fazer valer a pena
Bm             G
Se não agora depois não importa
D        A
Por você posso esperar (isso vai passaaar)


Bm                G
Entre razões e emoções a saída (tudo vai melhoraaar)
D        A
É fazer valer a pena (isso vai passaaar)
Bm             G
Se não agora depois não importa (tudo vai melhoraaar)
D        A
Por você posso esperar

           G
Posso esperar
           G
Posso esperar
           G
Posso esperar



Ending:

e|----------------------------------|
B|-5---5---5---5---5---5---5---5----|
G|---7---7---7---7---7---7---7---7--|
D|----------------------------------|
A|----------------------------------|
E|----------------------------------|


__________
Tabbed by: JimBlender
Suggest correction
Creating personal tab
Creating personal tab
You can edit any tab online and save it as your Personal.

You can edit, replace or remove any tab part or add personal notes – all changes will be seen only by you.

Personal tabs can be accessed anytime from any device, even offline.
Learn more »
Give kudos to tab author, rate the tab!
1 2 3 4 5
comments
print report bad tab
guest
You may want to rate the tab now too:
select rating
Wanna post a correction for this tab? Suggest correction