Oops, an error
Loading. Please wait.

So Rezo Tab

version 1
version 1

Whole song

Interactive

9,067 views 1 this week
1 commentread comment
1 2 3 4 5
please rate
add to favorites
launch autoscroll
font size
0
reset
how to read this tab
guitar tuner
Tab Pro tools
  • play this tab
  • loop segment
  • change instrument
  • show fretboard
  • metronome
×
Best way to learn
"So Rezo"
Autoscroll
slow
fast
+/-
esc
set tempo
stop
Difficulty
intermediate
------------------
Nx Zero - So rezo(Sete Chaves)
------------------

I'm really not a fan of this band but I liked this song so much :D
It's a easy song, but in some parts you need to pay 'attention'. I hope u enjoy it! (:

Intro: [G#5 - A#5 - Cm5 - D#5]

e |-11--------------|     e |-11----------------------|
B |-----11----------|     B |----11-------------------|
G |--------10--12---| 2X  G |-------10--12-12-12-12---| 1X
D |-----------------|     D |-------------------------|
A |-----------------|     A |-------------------------|
E |-----------------|     E |-------------------------|


Verse I: 'Quando nao tenho mais pra aonde ir...'

     C5         D#5       G#5     F#5
e |-------------------------------------------| 
B |-------------------------------------------|
G |--5---------8------------------------------| 2X
D |--5-(6x)----8-(6x)----6--------3-----------|   
A |--3---------6---------6-(6x)---3-(6x)------|
E |----------------------4--------1-----------|

just need to take the rhythm! and yeah the chorus has a lot of palm mutes (y)


verse II


e |-----------18-------------15-------------18---18-15-------|
B |-----16-------------16-------------16---------------16----|
G |--17----17-------17----17-------17----17------------------|  
D |----------------------------------------------------------|  
A |----------------------------------------------------------|
E |----------------------------------------------------------|

e |-----------18-------------15-----|
B |-----16-------------16-----------|
G |--17----17-------17----17--------|  
D |---------------------------------|  
A |---------------------------------|
E |---------------------------------|

Ending Verse II: 'a verdade aqui, no olhar...'

    F5
e |-----|
B |-----|
G |-----|   
D |-3---|  
A |-3---|
E |-1---|
    ****

Chorus:

      G#5           A#5         C5         D#5
e |---------------------------------------------------|
B |---------------------------------------------------|
G |-----------------------------55555555----88888888--| 
D |-6666-666-----8888-88888-----55555555----88888888--| 2X
A |-6666-666-----8888-88888-----33333333----66666666--|
E |-4444-444-----6666-66666---------------------------|
       *              *****

Solo I (other guitar plays intro in the background)

e |-----------------------------------------|
B |-----------------------------------------|
G |-----------------------------------------|  
D |--3--5---3-1h3-----------3--5---8-6--1---| 
A |-----------------1-3---------------------|
E |-----------------------------------------|


Verse I  (2x)

Verse II (1X)

Chorus   (2x) 


Bridge: 'So quero ser o que eu sou...'

    G#5       A#5       C5     D#5
e |--------------------------------------| 
B |--------------------------------------|
G |---------------------5-------8--------| 2X
D |--6---------8--------5-(10x)-8-(10x)--|   
A |--6-(10x)---8-(10x)--3-------6--------|
E |--4---------6-------------------------|


Solo II

e |----------------------------------------------------------------|
B |----------------------4444444------------------------6666666----|
G |-3--555555-3--555555------------3--555555-3--555555-------------|  
D |----------------------------------------------------------------|  
A |----------------------------------------------------------------|
E |----------------------------------------------------------------|

e |--------------------------------------------------------------------|
B |----------------------8888888---------------1111111111111111-11~----|
G |-3--555555-3--555555------------3--555555---------------------------|  
D |--------------------------------------------------------------------|  
A |--------------------------------------------------------------------|
E |--------------------------------------------------------------------|


Ending:

Guitar 1
e |-11--------------|     
B |-----11----------|     
G |--------10--12---| 8X  
D |-----------------|     
A |-----------------|     
E |-----------------|     

then

Guitar 2
 
play intro again picking the chords [G#5 - A#5 - Cm5 - D#5] 2X while the guitar 1 is playing:

e |-11--------------|     
B |-----11----------|     
G |--------10--12---| 9x  
D |-----------------|     
A |-----------------|     
E |-----------------|  


I hope you've enjoyed, this was my fisrt tab z;

   





comments
We did not receive enough feedback on this tab! Please rate:
print report bad tab
1 2 3 4 5
1 comment total.
0 reply
dan_acc wrote on August 31 2015, 10:56 am

Really nice tab. Could be better tho. Keep up the good work :D

I want to post or [tab]
guest
You may want to rate the tab now too:
select rating
Please do not post tabs as comments. Select "correction" instead!