Oops, an error
Loading. Please wait.

Sientes tab

9 views 3 this week
no commentswrite comment
1 2 3 4 5
3 more votes to show rating
add to favorites
×
Save as Personal and add changes to this tab that will be seen only by you. Learn more ›
×
You can save this tab as Personal to edit and correct it or add notes. All changes will be seen only by you. Learn more »
launch autoscroll
font size
0
reset
how to read this tab
guitar tuner
edit
Autoscroll
slow
fast
+/-
esc
set tempo
stop
Intro:
D/F
D
Punteo:D/E/G/A X2
        E/G/D/E X2
   D
D                  G      A
Sientes que tenes q salir a ganar
D                   G          A
Sientes que tenes que salir a aguantar
      G
A buscar la vida nueva
    A             B
Perder el vicio que
     G                   A   A#
Te llevo a ser eso que sos vos

B                   A            G
  No podes pensar que tenes que salir a aguantar
                        A
Sabiendo que el final esta ahí nomas

       D               A     G
No quiero laburar no quiero estudiar
       A
No verte me pone mal
       D                 A                  G
No quiero sufrir mas no quiero pensar mas
            A             D/A/G/A
Ni ver tu cara en la navidad

D

Sientes que todo lo planeado congelo
Sientes que todo lo pensado se cayo
Hay que pensar un rato
Sacar la conclusión
De lo que esta pasando y  la culpa de quien es

Vos tenes que aprender la vida es una sola
No te tenes que cagar

       D               A    G
No quiero laburar no quiero estudiar
       A
No verte me pone mal
       D                 A                  G
No quiero sufrir mas no quiero pensar mas
            A             D
Ni ver tu cara en la navidad


  /-----pm-----/

   D            Dsus4
e-2-2-2-2-2-2-3-2-0-3-3-3/
B-3-3-3-3-3-3-3-3-3-3-3-3/
G-2-2-2-2-2-2-2-2-2-2-2-2/   X2
D-0-0-0-0-0-0-0-0-0-0-0-0/
A----------------------------/
E----------------------------/

   F sus4
  /-----pm-----/   /--pm--/
e-5-5-5-5-5-5-6-5--5-5-5---/
B-6-6-6-6-6-6-6-6-8-6-6-6-/
G-5-5-5-5-5-5-5-5-5-5-5-5-/
D-------------------------/
A-------------------------/
E-------------------------/


/-----pm-----/
e-5-5-5-5-5-5-6-6-6-8-8-8------/
B-6-6-6-6-6-6-6-6-6-6-6-6-----/
G-5-5-5-5-5-5-5-5-5-5-5-5----/
D-------------------------------/
A------------------------------/
E-----------------------------/


e----------------------------------------------
B----------------------------------------------
G----------------------------------------------
D-0-2-4-5-2-0-2-4-2-0   x2
A----------------------------------------------
E----------------------------------------------


e---------------------------------------------
B---------------------------------------------
G---------------------------------------------
D-2-2-2-2-2-2-4-5-5-5-5-5-4-2-0-0-0-0-0-4-0-2-  x2
A----------------------------------------------
E----------------------------------------------

            
            
Suggest correction
Creating personal tab
Creating personal tab
You can edit any tab online and save it as your Personal.

You can edit, replace or remove any tab part or add personal notes – all changes will be seen only by you.

Personal tabs can be accessed anytime from any device, even offline.
Learn more »
Give kudos to tab author, rate the tab!
1 2 3 4 5
comments
print report bad tab
guest
Wanna post a correction for this tab? Suggest correction