Oops, an error
Loading. Please wait.

Hey Girl Chords

version 2
version 2

Whole song

62,261 views 15 this week
1 commentread comment
1 2 3 4 5
x 26
add to favorites
launch autoscroll
font size
0
reset
transpose
0
reset
display chords
guitar tuner
×
Best way to learn
"Hey Girl"
Autoscroll
slow
fast
+/-
esc
set tempo
stop
Author
Here are a few versions of the song I've seen.

1. Bar Chords
E-----5--7--5--|
B-----5--7--5--|
G--1--6--8--6--|
D--2--7--9--7--|
A--2--7--9--7--|
E-----5--7--5--|

2. Chords (Easiest)
E--------------|
B-----2--4--2--|
G--1--2--4--2--|
D--2--2--4--2--|
A--2-----------|
E--------------|

3. Chords (Different)
E--------2-----|
B-----2--4--2--|
G--1--2--4--2--|
D--2--2--4--2--|
A--2-----------|
E--------------|

4. The Version Marc plays in the Hey Girl Video
E-----x--x--x--|
B-----5--7--5--|
G--1--6--8--6--|
D--2--7--9--7--|
A--2--x--x--x--|
E-----x--x--x--|


Bridge

Just play one of the versions slow. Strum it once in normal time.
Listed to the song to get it right.

This was my first tab and I hope you all like it.

Any questions/comments,
joshpwc@yahoo.com
Suggest correction
comments
print report bad tab
1 comment total.
+1 reply
awilson25 10 Oct 05, 2006 11:51 AM

try
e|-0---0---0---0-|
B|-0---0---0---0-|
G|-1---6---8---6-|
D|-2---7---9---7-|
A|-2---7---9---7-|
E|-0---5---7---5-| the e & B open sounds good to me...

guest
You may want to rate the tab now too:
select rating
Wanna post a correction for this tab? Suggest correction