Oops, an error
Loading. Please wait.

Mr Moon Tab

by O.A.R.
4,348 views 1 this week
2 commentsread comments
1 2 3 4 5
1 last vote to show rating
add to favorites
×
Save as Personal and add changes to this tab that will be seen only by you. Learn more ›
×
You can save this tab as Personal to edit and correct it or add notes. All changes will be seen only by you. Learn more »
save as personal
new!
launch autoscroll
font size
0
reset
how to read this tab
guitar tuner
Autoscroll
slow
fast
+/-
esc
set tempo
stop
Author
--------------------
OAR
Mr.Moon
--------------------


Intro/Verse

e-----------|
b---1---1---|
g---0---0---|
d---3---2---|
a---3---3---|
E-----------|


Chorus

e-------3---1---|
b---1---3---1---|
g---2-------2---|
d---2-------3---|
a-------2---3---|
E-------3---1---|


Bridge

e-------------------|
b---1---3---1---1---|
g---0---2---0---0---|
d---2-------3---2---|
a---3-------3---3---|
E-------2-----------|

------------------------
Questions/Comments:
joshpwc@yahoo.com
OARSA.ORG
------------------------
Suggest correction
Give kudos to tab author, rate the tab!
1 2 3 4 5
comments
print report bad tab
2 comments total.
0 reply
the_furk 61 Feb 24, 2007 07:12 AM

The little Lead riff sounds like this repeated to me:

e|:--------10p8--------10p8--:|
B|:--10p8--------10p8--------:|

0 reply
derekbarnes8806 31 Aug 23, 2008 04:08 PM

i'll throw in

e|-----12p10-10p8-8~--|
B|--------------------|
G|--------------------|

guest
You may want to rate the tab now too:
select rating
Wanna post a correction for this tab? Suggest correction