Oops, an error
Loading. Please wait.

Revisited Tab

by O.A.R.
1,434 views 1 this week
2 commentsread comments
1 2 3 4 5
x 3
add to favorites
launch autoscroll
font size
0
reset
how to read this tab
guitar tuner
×
Best way to learn
"Revisited"
Autoscroll
slow
fast
+/-
esc
set tempo
stop
Author
------------------------
Artist: Of A Revolution
Song Title: Revisited
Album: In Between Now And Then
Tabbed by: Shaun Snider
Standard Tuning
------------------------

Intro (bass riff) if your on a guitar, you might want to play the notes on the D
and G strings one octave lower

e|--------------------------|
B|--------------------------|
G|--------------------14----|
D|----14h16-----14h16-------|
A|-0---------0--------------|
E|--------------------------|

--------
Intro (guitar 1/ acoustic): 
---------

e|-------------------------------------|
B|-------------------------------------|
G|---9-------12--11---9----------------|
D|---7-------12--12---7----------------|
A|---0-------0---0----0----------------|
E|-------------------------------------|

-----------
Intro (guitar 2/electric or acoustic)
-----------
(Enters w/ sax)

Guitar 2 can either play: A Bm GDA or A Bm D A

Guitar 2 can also play guitar 1's part.
------------
Prechorus:
------------
Same as verse parts for both guitars, except sounds best if they are just strummed once for each chord.
----------
Chorus: 
----------
G D A

It is best if open chords are used, especially for the G, it gives it a huge sound.

--------
Reggae!:
--------
Use Barre chords, play on the upbeat, and guitar 2 can use a wah for fun.

     A   Bm   D   A
e|-x-5-x-7-x-10-x-5
B|-x-5-x-7-x-10-x-5
G|-x-6-x-7-x-11-x-6
D|-x-7-x-9-x-12-x-7
A|-x-7-x-9-x-12-x-7
E|-x-5-x-7-x-10-x-5

Thats all, have fun
Suggest correction
Give kudos to tab author, rate the tab!
1 2 3 4 5
comments
print report bad tab
2 comments total.
0 reply
O-52-A-50-R 946 Oct 12, 2007 03:12 PM

e|--------------------------|
B|--------------------------|
G|------------------4-------|
D|----2h4------2h4----------|
A|-0---------0--------------|
E|--------------------------|


That works too

0 reply
O-52-A-50-R 946 Oct 12, 2007 03:13 PM

oops its a 2 on the G string not 4

guest
You may want to rate the tab now too:
select rating
Wanna post a correction for this tab? Suggest correction