Oops, an error
Loading. Please wait.

Shattered tab

version 1
version 1

Whole song

Interactive

by O.A.R.
62,719 views 9 this week
6 commentsread comments
1 2 3 4 5
x 15
add to favorites
×
Save as Personal and add changes to this tab that will be seen only by you. Learn more ›
×
You can save this tab as Personal to edit and correct it or add notes. All changes will be seen only by you. Learn more »
launch autoscroll
font size
0
reset
how to read this tab
guitar tuner
edit
Autoscroll
slow
fast
+/-
esc
set tempo
stop
Difficulty
intermediate
Intro (Piano part):

e|-----11-12-11-----11-12-11-----11-12-11-----11-12-11-|
B|--12-----------12-----------12-----------12----------|
G|-----------------------------------------------------|
D|-----------------------------------------------------| (Repeat)
A|-----------------------------------------------------|
E|-----------------------------------------------------|


Intro/Verse:

e|-------------------------------------------------------------------------|
B|-------------------------------------------------------------------------|
G|-------------------------------------------------------------------------|
D|-44444444-44444444-------------------------------------44444444-44444444-| 
A|-22222222-11111111-66666666-44444444-22222222-44444444-22222222-22222222-|   
E|-------------------44444444-22222222-00000000-22222222-------------------|


Pre-chorus ("I'm good without you..."):

e|-------------------------------------------------------|
B|-------------------------------------------------------|
G|-------------------------------------------------------|
D|-44444444----------44444444----------------------------|
A|-22222222-44444444-22222222-44444444-22222222-44444444-|
E|----------22222222----------22222222-00000000-22222222-|

Chorus (How many times..."):

e|-------------------------------------------------------------------------|
B|-------------------------------------------------------------------------|
G|-------------------------------------------------------------------------|
D|-44444444-44444444-------------------------------------44444444-44444444-| 
A|-22222222-11111111-66666666-44444444-22222222-44444444-22222222-22222222-|   
E|-------------------44444444-22222222-00000000-22222222-------------------|

Solo:

e|----6~7~6--------------6~7~6---------------6~7~6--------------6~7~6--9-|
B|-7--------777~9------7-------777~9------7--------777~9------7----------|
G|----------------8------------------8-------------------8---------------|
D|-----------------------------------------------------------------------|
A|-----------------------------------------------------------------------|
E|-----------------------------------------------------------------------|

Bridge ("Give it, give it up"):

e|---------------------------------------------------------------|
B|---------------------------------------------------------------|
G|---------------------------------------------------------------|
D|-44444444----------44444444------------------------------------|
A|-22222222-44444444-22222222-44444444-22222222-44444444-44444444|
E|----------22222222----------22222222-00000000-22222222-22222222|


Repeat Chorus




            
            
Suggest correction
Creating personal tab
Creating personal tab
You can edit any tab online and save it as your Personal.

You can edit, replace or remove any tab part or add personal notes – all changes will be seen only by you.

Personal tabs can be accessed anytime from any device, even offline.
Learn more »
comments
print report bad tab
6 comments total. Showing first comments.
0 reply
coldfry1 2,158 Aug 24, 2008 04:37 PM

pretty good. little extra thrown in. idk why but pretty good.

0 reply
slowhand dom 10 Oct 28, 2008 10:20 AM

Hey man, i like it alot, Bravo, 5 stars

0 reply
!!!@L!V3!!! 10 Nov 30, 2008 02:06 PM

You should Put the words or a few of the words over the beat so it is easier for people to stay on beat with the song. Just a suggestion, it would make it alot better. thanks

guest
Wanna post a correction for this tab? Suggest correction