Oops, an error
Loading. Please wait.

So Moved On Tab

version 1
version 1

Whole song

6,733 views 12 this week
3 commentsread comments
1 2 3 4 5
x 6
add to favorites
launch autoscroll
font size
0
reset
how to read this tab
guitar tuner
×
Best way to learn
"So Moved On"
Autoscroll
slow
fast
+/-
esc
set tempo
stop
#----------------------------------PLEASE NOTE--------------------------------#
#This file is the author's own work and represents their interpretation of the#
#song. You may only use this file for private study, scholarship, or research.#
#-----------------------------------------------------------------------------#
#-- File created with Instab - http://www.pconline.com/~smcarey/instab.html --#
#-----------------------------------------------------------------------------#

Author/Artist: OAR Of A Revolution
Title: So Moved On
Transcribed by: Aaron Stark
Email: Stark668@aol.com

This is in the Key of A Major

---------0-----------------0------------------2-----------------2-------------|
-------2---2-------------0---0--------------3---3-------------3---3-----------|
-----2-------2---------1-------1----------4-------4---------2-------2---------|
---2-----------2-----2-----------2------4-----------4-----0-----------0-------|
-0-----------------2------------------2-----------------0---------------------|
------------------------------------------------------------------------------|
 Intro and Verse:       Play threw out

---------------------------------0----0----4----2-----------------------------|
---------------------------------2----0----4----3-----------------------------|
---------------------------------2----1----4----2-----------------------------|
---------------------------------2----2----4----0-----------------------------|
---------------------------------0----2----2----0-----------------------------|
---------------------------------0----0---------0-----------------------------|
 Play after the Drums kick in:   A    E    Bm   D        Strum these

-0---0---2-----------0---0----------------------------------------------------|
-2---0---3-----------2---0----------------------------------------------------|
-2---1---2-----------2---1----------------------------------------------------|
-2---2---0-----------2---2----------------------------------------------------|
-0---2---0-----------0---2----------------------------------------------------|
-0---0---0-----------0---0----------------------------------------------------|
 After Verse but before Chorus: " Well Im threw the night"

-0----0---------2-------------------------------------------------------------|
-2----0----4----3-------------------------------------------------------------|
-2----1----4----2-------------------------------------------------------------|
-2----2----4----0-------------------------------------------------------------|
-0----2----2----0-------------------------------------------------------------|
-0----0---------0-------------------------------------------------------------|
 Chorus: Starts with  " My Drinkin "    Strum chords
Suggest correction
comments
print report bad tab
3 comments total.
0 reply
DrewRoth 316 Jun 01, 2005 12:00 AM

wrong words, screwey chords

0 reply
insertnamehere0 10 Aug 24, 2005 12:00 AM

Wow.....this is probably the worst tabs ive ever seen. This doesn't sound like So Moved On at all. These tabs suck if you want the real tabs look at this.

transcribed by Kevin Ruschman

e --------0---------------0---------------0-----------------0------
b-----2-----2---2-----2-----2---2-----2------2--2-------3-----3---3
g---2---2-----2-----1---1-----1-----2---2------2------2---2-----2--
d--------------------------------------------------0---------------
a-0----------------------------------------------------------------
e-----------------0---------------2--------------------------------

Chord progression:
A E F#m D (Verse)
F#m E D A E (Chorus)

thats how it goes. dude u suck at tabbing. quit life.

0 reply
guildplayer 68 Feb 17, 2008 11:39 AM

this might be right for another version but not the one i know... Good attempt and insertnamehere0 you were pretty harsh... but funny

guest
You may want to rate the tab now too:
select rating
Wanna post a correction for this tab? Suggest correction