Oops, an error
Loading. Please wait.

That Was A Crazy Game Of Poker Live At Msg intro tab

by O.A.R.
8,751 views 3 this week
4 commentsread comments
1 2 3 4 5
x 8
add to favorites
×
Save as Personal and add changes to this tab that will be seen only by you. Learn more ›
×
You can save this tab as Personal to edit and correct it or add notes. All changes will be seen only by you. Learn more »
launch autoscroll
font size
0
reset
how to read this tab
guitar tuner
edit
Autoscroll
slow
fast
+/-
esc
set tempo
stop
Author
Difficulty
Tabbed by:hellzyeah!
Email:grinddude137@yahoo.com

from the Live at MSG album

Im sure this is right on it.

e|--------------------------------------------------------------------------
B|--------------------------------------------------------------------------
G|------------2-------------------------------------------------------------
D|-------0-2-3--------0-2-3-------------------------------------------------
A|----3-3----------3-3------------------------------------------------------
E|--------------------------------------------------------------------------

its pretty simple.you'll get the rhythm.

            
            
Suggest correction
Creating personal tab
Creating personal tab
You can edit any tab online and save it as your Personal.

You can edit, replace or remove any tab part or add personal notes – all changes will be seen only by you.

Personal tabs can be accessed anytime from any device, even offline.
Learn more »
comments
print report bad tab
4 comments total. Showing first comments.
0 reply
O-52-A-50-R 946 Aug 14, 2007 07:49 AM

Not much of a tab really...plus it's not even fully correct.

It should be more like:

Guitar 1-Marc
|----------------------------
|----------------------------
|----------2-0-0-0-----------
|----0-2-3-------------0-2-3-
|3-3---------------3-3-------
|----------------------------

Guitar 2-Richard
|-12-
|-13-
|----
|----
|----
|----

Guitar 1-Marc
|----------------------------
|----------------------------
|----------2-0-0-0-----------
|----0-2-3-------------0-2-3-
|3-3---------------3-3-------
|----------------------------


Crowds: (WOOS!)

*Sax Enters*


.......etc.

0 reply
hellzyeah! 16 Aug 14, 2007 08:23 AM

sry i messed my first ever tab up

+1 reply
giddy up 36 Dec 20, 2007 05:10 PM

well i for one think your tab was pretty good, i gave it 5 stars
i mean it sounds very correct to me your just missing
like 2 notes the guy that like sent a fricken counter tab back at you is a weenie

guest
You may want to rate the tab now too:
select rating
Wanna post a correction for this tab? Suggest correction