Oops, an error
Loading. Please wait.

To Zion Goes I tab

version 2
version 2

Whole song

by O.A.R.
1,402 views 3 this week
1 commentread comment
1 2 3 4 5
1 last vote to show rating
add to favorites
×
Save as Personal and add changes to this tab that will be seen only by you. Learn more ›
×
You can save this tab as Personal to edit and correct it or add notes. All changes will be seen only by you. Learn more »
launch autoscroll
font size
0
reset
how to read this tab
guitar tuner
edit
Autoscroll
slow
fast
+/-
esc
set tempo
stop
Author
Difficulty
-----------------------------------------------------------------
To Zion Goes I - O.A.R
-----------------------------------------------------------------
Tabbed by: Sam G
Email: nofx1529@yahoo.com

Tuning: Standard

This is a very easy song and the riff is pretty much play over and over. 
The only change during the song is to the bridge. You should be able
to figure out the strumming patern for the bridge.During the riff when 
Marc is singing you can just go to the E, B, A, B progression without
the little addins. Also, to add to the song, instead of playing the
regular E chord I like playing the power chord of E one step up. Enjoy

e|----------------5-5-5---------------|
B|----------------5-5-5---------------|
G|-1-1-1--4-4h6p4-6-6-6--------4h6p4--|  Riff
D|-2-2-2--4-4-----7-7-7--4h5h6--------|
A|-2-2-2----------7-7-7---------------|
E|----------------5-5-5---------------|


    C#  B   F#  A
e|-------------------|
B|-------------------|
G|--6---4------------| Bridge
D|--6---4---4---7----|
A|--4---2---4---7----|
E|----------2---5----|





| h  hammer-on
| p  pull-off
Suggest correction
Creating personal tab
Creating personal tab
You can edit any tab online and save it as your Personal.

You can edit, replace or remove any tab part or add personal notes – all changes will be seen only by you.

Personal tabs can be accessed anytime from any device, even offline.
Learn more »
Give kudos to tab author, rate the tab!
1 2 3 4 5
comments
print report bad tab
1 comment total.
+1 reply
O-52-A-50-R 946 Aug 14, 2007 07:38 AM

good tab but instead of the
|
|
|4h6p4
|
|

at the end of this riff:

e|----------------5-5-5---------------|
B|----------------5-5-5---------------|
G|-1-1-1--4-4h6p4-6-6-6--------4h6p4--| Riff
D|-2-2-2--4-4-----7-7-7--4h5h6--------|
A|-2-2-2----------7-7-7---------------|
E|----------------5-5-5---------------|


try

|
|5h7p5
|
|
|
|

guest
You may want to rate the tab now too:
select rating
Wanna post a correction for this tab? Suggest correction