Oops, an error
Loading. Please wait.

Windy City Man tab

by O.A.R.
181 views 1 this week
2 commentsread comments
1 2 3 4 5
1 last vote to show rating
add to favorites
×
Save as Personal and add changes to this tab that will be seen only by you. Learn more ›
×
You can save this tab as Personal to edit and correct it or add notes. All changes will be seen only by you. Learn more »
launch autoscroll
font size
0
reset
how to read this tab
guitar tuner
edit
Autoscroll
slow
fast
+/-
esc
set tempo
stop
Author
O.A.R. (...of a revolution)
Windy City Man

Tabbed By Jason Scherrer

Intro/lead ins

e--------------------------------------|
b---8--10--12--8--10--13--15--13--12---|
g--------------------------------------|
d--------------------------------------|
a--------------------------------------|
E--------------------------------------|

Verse/Chorus

e---10---12------15--------------------------------------------- ) (the third chord should be)
b---12---12h13---13--------------------------------------------- ) (easy to get to from the  ) (Just listen)
g---12---12h14---12--- (second one, you just pull) (   to the -- )
d---12---12h14---14--- (your pinky off the 14th  ) (rhythm for-- )
a---10---12------12--- (fret on the g string and ) ( the beats-- )
E---10---12------12--- (put it on the 15------------------------ ) on the e)

This is just G - Am higher up on the fret.  It's the
guitar that stands out the most.

Bridge/Outro

e---10---10---5---8----|
b---12---10---5---8----|
g---12---11---5---9----|
d---12---12---7---10---|
a---10---12---7---10---|
E---10---10---5---8----|

This is Just G - D - Am - C.  You can play this in any variation you want.

joshpwc@yahoo.com
oarsa.org
Suggest correction
Creating personal tab
Creating personal tab
You can edit any tab online and save it as your Personal.

You can edit, replace or remove any tab part or add personal notes – all changes will be seen only by you.

Personal tabs can be accessed anytime from any device, even offline.
Learn more »
Give kudos to tab author, rate the tab!
1 2 3 4 5
comments
print report bad tab
2 comments total.
0 reply
O-52-A-50-R 946 Oct 12, 2007 02:41 PM

Intro is easier like this

|---------------------------|
|------12-------13-15-13-12-|
|12-14----12-14-------------|
|---------------------------|
|---------------------------|
|---------------------------|

0 reply
O-52-A-50-R 946 Oct 12, 2007 02:43 PM

And in the version I have either Marc or Richard (whoevers not playing the first part) is playing this.

|-------------7-------|
|----8-----10----10-8-|
|7-9---7-9------------|
|---------------------|
|---------------------|
|---------------------|

Try playing it with someone else so you can listen to how they sound together. I'm pretty sure thats correct.

guest
You may want to rate the tab now too:
select rating
Wanna post a correction for this tab? Suggest correction