Oops, an error
Loading. Please wait.

Dead Disco Dancer Tab

4,176 views 3 this week
4 commentsread comments
1 2 3 4 5
1 last vote to show rating
add to favorites
launch autoscroll
font size
0
reset
how to read this tab
guitar tuner
Autoscroll
slow
fast
+/-
esc
set tempo
stop
Help us to improve Ultimate-Guitar.com Take our survey!
×
Author
Difficulty
novice
------------------------------------------------------------------------|
------------------------------------------------------------------------|
------------------------------------------------------------------------|
--6-6-6-6-5-5-5-5-3h5-3-------------------------------------------------|
------------------------6-3-3-----2h4-2----------2h4-2------------------|
--------------------------------2-------5-2----2-------5-2--------------|

www.myspace.com/ochildren
Suggest correction
Give kudos to tab author, rate the tab!
1 2 3 4 5
comments
print report bad tab
4 comments total. Showing first comments.
+2 reply
walaziz 10 Aug 30, 2010 05:06 PM


---------------------------------------------------------|
---------------------------------------------------------|
---------------------------------------------------------|
---------------------------------------------------------|
--8-8-8-8-7-7-7-7-5h7-5-3--------------------------------|
-------------------------5-5----3h5-3-0-1----3h5-3-0-1---|


No ?

0 reply
Gyapo 10 Sep 23, 2010 09:16 AM

I think it's D not E

0 reply
TaV0 1,974 Nov 04, 2010 12:47 PM

I had no idea more people knew of this band! hmmm, I will try this tab later and perhaps try to tab a couple of songs

guest
You may want to rate the tab now too:
select rating
Wanna post a correction for this tab? Suggest correction