Oops, an error
Loading. Please wait.

Ruins Bass Tab

1,108 views 1 this week
no commentswrite comment
1 2 3 4 5
3 more votes to show rating
add to favorites
launch autoscroll
font size
0
reset
guitar tuner
Autoscroll
slow
fast
+/-
esc
set tempo
stop
Help us to improve Ultimate-Guitar.com Take our survey!
×
Author
                              Song Ruins
                             Album O. Children
                            Artist O. Children
                        Written By O. CHildren
                         Tabbed By Ash


Intro : --------------------------|
        ---2---2---2---2----------|
        --------------------------| X2
        -00-0-0--00-0-0-----------|


        ----------------------------|
        ---2---2---2----------------|
        --------------112-----------| X4
        -00-0-0--00-0---------------|


Verse:  -----------------------------------|
        -----------------------------------|
        -----------------3333333322222222--| X8
        -0000000000000000------------------|


Chorus: ----------------------------------|
        ----------------------------------|
        -----------------3333333322222222-|
        -0000000000000000-----------------|
                                              X2
        ---------------------------------|
        ---------------------------------|
        -00000000000000003333333322222222|
        ---------------------------------|



Verse:  -----------------------------------|
        -----------------------------------|
        -----------------3333333322222222--| X4
        -0000000000000000------------------|

Chorus: ------------------------------------|
        ------------------------------------|
        -----------------3333333322222222---|
        -0000000000000000-------------------|  X2

        ---------------------------------|
        ---------------------------------|
        -00000000000000003333333322222222|
        ---------------------------------|


Bridge: ------------------------------------|
        ------------------------------------|
        ------------------------------112---|  X7
        -00000000000000000000000000000------|

Chorus: ----------------------------------|
        ----------------------------------|
        -----------------3333333322222222-|
        -0000000000000000-----------------|
                                             X1
        ---------------------------------|
        ---------------------------------|
        -00000000000000003333333322222222|
        ---------------------------------|


      After First time it is then played with this small fill at the beginning and repeated  again
        ----------------------------------|
        ----------------------------------|
        -----------------3333333322222222-|
        -0000000002222200-----------------|
                  ^^^^^                         X2
        ---------------------------------|
        ---------------------------------|
        -00000000000000003333333322222222|
        ---------------------------------|


        ----------------------------------|
        ----------------------------------|
        -----------------3333333322222222-|
        -0000000000000000-----------------|
                                            X6
        ---------------------------------|
        ---------------------------------|
        -00000000000000003333333322222222|
        ---------------------------------|

      End on E and let it ring

        -----------------|
        -----------------|
        -----------------|
        -0---------------|
Suggest correction
Give kudos to tab author, rate the tab!
1 2 3 4 5
comments
print report bad tab
guest
You may want to rate the tab now too:
select rating
Wanna post a correction for this tab? Suggest correction