Oops, an error
Loading. Please wait.

Aint Got Nothin Tab

9,962 views 3 this week
no commentswrite comment
1 2 3 4 5
excellent!
x 3
add to favorites
launch autoscroll
font size
0
reset
how to read this tab
guitar tuner
Autoscroll
slow
fast
+/-
esc
set tempo
stop
Help us to improve Ultimate-Guitar.com Take our survey!
×
Author
Difficulty
intermediate
Title: Ain't Got Nothin'
Artist: Oasis
Album: Dig Out Your Soul

Tempo: 112 bpm

Chords:
A5 (x022xx)
B5 (x244xx)
F#5 (244xxx)
E (022100)
E7 (020100)
E5 (x799xx)
D5 (x577xx)
G5 (x101212xx)
F5 (x81010xx)

Intro:
  A5          B5           F#5
E|------------------------|------------------------|
B|------------------------|------------------------|
G|2---2-------4---4-------|------------------------|
D|2---2---0---4---4---0---|4---4---4---4---4---4---|
A|0---0---0---2---2---0---|4---4---4---4---4---4---|
E|--------0-----------0---|2---2---2---2---0---2---|  X2

Verse 1:
A5        B5             F#5    
They got nothin' on me anymore
They got nothin' on you
I don't care what they say anymore
All I want is the truth

Chorus:
E            E7
I don't feel, to unveil
Here's a song, sing along

Break:
A5    B5    |F#5          X2

Verse 2:
They got nothin' from me anymore
I got nothin' from you
I don't care what they say anymore
All I want is the truth

Chorus:
E5            D5
I don't feel, to unveil
Here's a song, sing along
G5              F5
Watch my style, pick a place
Wipe the smile, from your face
E5           D5
I don't feel, to unveil
Here's a song, sing along 
G5             F5
Watch my style, pick a place
Wipe the smile, from your face

Solo:
A5    B5    |F#5          X4

[Gtr. 1] [Gtr. 2 - improvise]
  E5                       D5
E|------------------------|------------------------|
B|------------------------|------------------------|
G|------------2b4=--------|--------------------2h4-|
D|------------------------|------------------------|
A|------------------------|------------------------|
E|------------------------|------------------------| 
  E5                       D5
E|------------------------|------------------------|
B|------------------------|------------------------|
G|--------------------2-0-|--------------------0-2-|
D|2~------------------2-0-|--------------------0-2-|
A|------------------------|2~----------------------|
E|------------------------|------------------------|
  G5                       F5
E|------------------------|------------------------|
B|------------------------|---99~------------------|
G|4b5-------------4-------|7-----------------------|
D|------------------------|------------------------|
A|------------------------|------------------------|
E|------------------------|------------------------|
  G5                       F5
E|------------------------|------------------------|
B|-------/8-----------8---|-----8----------8---10--|
G|------------9-----------|9~----------9-----------|
D|------------------------|------------------------|
A|------------------------|------------------------|
E|------------------------|------------------------|
  E5                       D5
E|------------10----------|------------10----------|
B|10b12-------------------|10b12-------------------|
G|------------------------|------------------------|
D|------------------------|------------------------|
A|------------------------|------------------------|
E|------------------------|------------------------|
  E5                       D5
E|10------10--10------10--|10------10--10---~\-----|
B|10b12---12--10b12---12--|10b12---12--10b12~\-----|
G|------------------------|------------------------|
D|------------------------|------------------------|
A|------------------------|------------------------|
E|------------------------|------------------------|
  G5                       F5
E|------------------------|------------------------|
B|------------------------|------------------------|
G|14b15-------14b15-------|12--------------10--12--|
D|------------x-----------|------------------------|
A|------------------------|------------------------|
E|------------------------|------------------------|
  G5                       F5
E|------------------------|------------------------||
B|------------------------|------------------------||
G|14b15-------14b15-------|------------------------||
D|------------------------|12\---------------------||
A|------------------------|------------------------||
E|------------------------|------------------------||

Verse 3:
They got nothin' on me anymore
They got nothin' on you
I don't care what they say anymore
All I want is the truth

Suggest correction
Give kudos to tab author, rate the tab!
1 2 3 4 5
comments
print report bad tab
guest
You may want to rate the tab now too:
select rating
Please do not post tabs as comments. Select "correction" instead!