Oops, an error
Loading. Please wait.

All Around The World Tab

version 1
version 1

Whole song

Interactive

109,035 views 87 this week
15 commentsread comments
1 2 3 4 5
x 42
add to favorites
launch autoscroll
font size
0
reset
how to read this tab
guitar tuner
×
Best way to learn
"All Around The World"
Autoscroll
slow
fast
+/-
esc
set tempo
stop
[Intro]  
B F# E G#m F#(2X)

e|----------------|
B|----------------|
G|----------------|
D|----------------|
A|-----------2--2-|
E|-2--2-h-4-------|

B               F#
It's a bit early in the midnight hour for me
     E               G#m    F#
To go through all the things that I wanna be
B          F#
I don't believe in everything I see
E                  G#m    F#
You know I'm blind so why'd you disagree

[Bridge]
C#       E
Take me away cos I just don't want to stay
     G#m           F#
And the lies you make me say are getting deeper everyday
G            B
These are crazy days but they make me shine
E         F#  F E
Time keeps rolling by

[Chorus]
               B
All around the world
                        C#
You've gotta spread the word
                   E
Tell them what you heard
           B
We're gonna make a better day
                                                 C#
All around the world, you've gotta spread the word
         E
tell them what you heard
                        B
You know it's gonna be okay

[Verse 2]
B                  F#
What you gonna do when the walls come falling down
          E          G#m   F#
You never move you never make a sound
B                  F#
Where you gonna swim with the riches that you found
     E              G#m    F#
If you're lost at sea well I hope that you've drowned

[Bridge]
C#       E
Take me away cos I just don't want to stay
   G#m
and the lies you make me say
       F#
Are getting deeper everyday
G            B
These are crazy days but they make me shine
E         F#  F E
Time keeps rolling by

[Chorus]
                B                               C#
All around the world you've gotta spread the word
         E
Tell them what you've heard
           B
We're gonna make a better day
         B            C#
and All around the world you gotta spread the word
         E
Tell them what you've heard
           B
You know it's gonna be okay

[Use this riff]
e|-----------------------------|
B|-----------------------------|
G|-------4--6^r4---------------|
D|4-h-6------------------------|
A|-----------------------------|
E|-----------------------------|

[This riff over the Na-na  na-nas]
E|-----------------------------|
B|----7------------------------|
G|-6^---6`--4------------------|
D|-----------------------------|
A|-----------------------------|
E|-----------------------------|
 B
Na-na na-na
 C#
na na na na
 E
na na na na
   B
na-na na
  B
na-na na-na
 C#
na na na na
  E
NA na na na
          B  E
na-na na-aa
B   E
na-aa
B   E
na-aa
G     F   E
na na na na na na na na

e|----------------------------------|
B|----------------------------------|
G|----------------------------------|
D|------5-7-5--7^--7`-5-5-----------|
A|5-h-7-----------------------------|
E|----------------------------------|

G     F   E
na na na na na na na na
e|-----------------------------------|
B|-----------------------------------|
G|---------12-14-12--14^--14`--12-12-|
D|12-h-14----------------------------|
A|-----------------------------------|
E|-----------------------------------|

G        F   E
na na na na na na na na
e|----------------------------------|
B|----------------------------------|
G|12-h-13---------------12----------|
D|---------14--12-h-14------14------|
A|----------------------------------|
E|----------------------------------|

G
na na na na na na na na na na na na na
      C           D
All around the world you've gotta spread the word
         F
Tell them what you heard
           C
We're gonna make a better day
      C          D
All around the world you've gotta spread the word
        F
Tell them what you heard
         C
you know it's gonna be okay
       C            D
Cos all around the world you've gotta spread the word
          F
Tell them what you heard
          C
We're gonna make a better day
      C       D
All around the world you gotta spread the word
         F
Tell them what you heard
           C C B A# -A
You know it's gonna be okay
G# G        A
     It's gonna be okay
G# G        A
     It's gonna be okay
G# G        A
     It's gonna be okay
A
It's gonna be okay
      D           E
All around the world you've gotta spread the word
         G
Tell them what you heard
           D
We're gonna make a better day
      D          E
All around the world you've gotta spread the word
         G
Tell them what you heard
           D
You know it's gonna be okay
      D          E
All around the world you've gotta spread the word
        G
Tell them what you heard
          D
We're gonna make a better day
      D          E
all around the world youve gotta spread the word
         G
Tell them what you heard
           D
You know it's gonna be okay
   E     G      D
La la la la-la la la-la la-la la-la la
    E           G               D
La la la la-la la la-la la-la la-la la

Use this riff after each ...I know what I know:

e|-------------------|
B|-------------------|
G|--------7--------7-|
D|-7-h-9-----7-h-9---|
A|-------------------|
E|-------------------|

D
And I know what I know
E
What I know what I know
G
Yet I know what I know
      D
It's gonna be okay

e|-------------------------|
B|-------------------------|
G|-------------------------|
D|9^-9^-7-9^--7--9--7------|
A|-------------------------|
E|-------------------------|

    D
And In know what I know
        E
what I know what I know
      G
Yet I know what I know
       D
It's gonna be okay
D
Yeah I know what I know
       E
And I know what I know
       G
Yet I know what I know
      D
It's gonna be okay
D
Yeah I know what I know
       E
And I know what I know
       G
Yet I know what I know
D
Please don't cry, never say die

[Solo]
e|---------------------------------------------------------------------|
B|10-/-12--10-10-----12--10-10--10-----12--10--10----------------------|
G|---------------11-----------------11---------------9^r--7-----7-7----|
D|----------------------------------------------------------9----------| x2
A|---------------------------------------------------------------------|
E|---------------------------------------------------------------------|
*Vibrate the string with your finger

e|E-------------------|
B|-------------------|
G|--------7--------7-|
D|-7-h-9-----7-h-9---|
A|-------------------|
E|-------------------|
(repeat a few times then back to the solo)(agian play it twice)

DEGD
       Please don't cry, never say die
DEGD
       Please don't cry, never say die

D    E   G     D
La la la la-la la la-la la-la la-la la
D           E        G                 D
La la la la-la la la-la la-la la-la la
D           E         G                D
La la la la-la la la-la la-la la-la la
D           E          G                D
La la la la-la la la-la la-la la-la la
D
Pigs don't cry, never say die
D           E           G               D
La la la la-la la la-la la-la la-la la
D
So pigs don't cry, never say die
D           E           G              D
La la la la-la la la-la la-la la-la la
D
So pigs don't cry, never say die
D           E            G            D
La la la la-la la la-la la-la la-la la
D
So pigs dont cry, never say die
D           E            G             D
La la la la-la la la-la la-la la-la la
Suggest correction
comments
print report bad tab
15 comments total. Showing first comments.
-1 reply
Mr_stereophonic 10 Dec 03, 2006 07:19 AM

chord diagrams would be nice

0 reply
sam.burf 75 Dec 29, 2006 08:43 AM

its great but i stuck on the solo i cant really work it out i can play it easily but it doesnt sound right when i play it with the actual song and i have actualy tuned my guitar to the song aswell

0 reply
sam.burf 75 Dec 30, 2006 03:58 AM

ive just worked it out you should do on the solo instead of 9th fret G string you should do 11th fret G string

guest
You may want to rate the tab now too:
select rating
Wanna post a correction for this tab? Suggest correction