Oops, an error
Loading. Please wait.

Born On A Different Cloud Chords

version 1
version 1

Whole song

Interactive

28,507 views 24 this week
4 commentsread comments
1 2 3 4 5
excellent!
x 13
add to favorites
launch autoscroll
font size
0
reset
transpose
0
reset
simplify chords
display chords
guitar tuner
Tab Pro tools
  • play this tab
  • loop segment
  • change instrument
  • show fretboard
  • metronome
×
Best way to learn
"Born On A Different Cloud"
Autoscroll
slow
fast
+/-
esc
set tempo
stop
Oasis
Born On A Different Cloud

Chords:
Dm 	xx0767
A	xx7657
G	320033
G2	320030
Am	x02210
Am2	x02211
E7	x10200
E	022100
F	133211


Fill 1:
e-----------0----------
B---------1-----0------
G-0h2h0-2----------2-0-
D----------------------
A----------------------
E----------------------


Fill 2:
e-0-----
B---0---
G-----0-
D-------
A-------
E-------


Fill 3:
e-15b16-13----------
B----------15-13----
G----------------14-
D-------------------
A-------------------
E-------------------


Intro:

Dm, A, Dm, A, E7



Am                        Am2, Am
Born on a different cloud,
         G                                G2, G
From the ones that have passed round town,
F		       
Its no surprise to me, 
            G                          G2, G
That you're classless clever and free

Am			Am2, Am
Loaded just like a gun,
           G			    G2, G
You're the hero thats still unsung, 
F                      
Livin on borrowed time,
          E7                         E, E7
You're my sun and you're gonna shine

Dm
Talkin to myself again,
		      A
This time I think I'm gettin through,
Dm
Its funny how you think,
    Am                   E7
Its funny how, Its funny how when you do




Am                         Am2, Am
Born on a different cloud,
         G				   G2, G
From the ones that have passed round town,
F                      
Its no surprise to me, 
            G			      G2, G
That you're classless clever and free


Solo:

NB: Youll need a slide to tackle this solo. 
    Go buy one if you aint got one.
 
         Am               Am2  Am   G            G2, G
e------------------------------------------------------
B-----------------15s17-13----------------15s17-13-----
G-----------14s17-------------------14s17--------------
D-14s12s14---------------------------------------------
A------------------------------------------------------
E------------------------------------------------------

           F                  G  G2  G
e-------------------------------------------------
B-14s16-13--------------16s18-15------------------
G-------------------------------------------------
D----------------------------------------14s12s14-
A-------------------------------------------------
E-------------------------------------------------


G
Lonely soul,
             Am        Fill 1
Busy working overtime,
G
Nothing ever gets done 
                     Am              Fill 1
Especially when your hands are tied,
G           Fill 2
Lonely soul,
               Am           Fill 1
Bakin up yer mothers pride,
G                      Fill 2
Nothing ever gets done,
E7
Not until your wars won

Am
We're born on a different cloud
G
You're born on a different cloud
F
We're born on a different cloud
G
We're born on a different cloud

Am				Am2, Am
We're born on a different cloud
G				G2, G
We're born on a different cloud
F			  
Born on a different cloud
G				G2, G, Fill 3
We're born on a different cloud



Am			  Am2, Am, Fill 3
Born on a different cloud
G			  G2, G, Fill 3
Born on a different cloud
F			  Fill 3
Born on a different cloud
G			  G2, G, Fill 3
Born on a different cloud



Am
La la la la
La la la la la la
G
La la la la
La la la la la la
F
La la la la
La la la la la la
G
La la la la
La la la la la la



Am
La la la la
La la la la la la
Born on a different cloud

G
La la la la
La la la la la la
Born on a different cloud

F
La la la la
La la la la la la
Born on a different cloud

G
La la la la
La la la la la la
Born on a different cloud
comments
print report bad tab
4 comments total. Showing first comments.
0 reply
sguitar wrote on February 7 2009, 03:03 pm

the solo is not right... it should be this

e-------------------------------------------------------
B-13(s12)-10--------------15(s13)-12--------------------
G-------------------------------------------------------
D----------------------------------------14s12s14s19~~--
A-------------------------------------------------------
E-------------------------------------------------------

e-------------------------------------------------
B-14s16-13--------------16s18-15------------------
G-------------------------------------------------
D----------------------------------------14s12s14-
A-------------------------------------------------
E-------------------------------------------------

0 reply
sguitar wrote on February 7 2009, 03:05 pm

THE SECOND TAB IS WRONG(ORIGINAL)!!!!!!!!

0 reply
sguitar wrote on February 7 2009, 03:08 pm

Fill3 should be this:

Fill 3:
e---15-12----------
B---------15-13----
G---------------14-
D------------------
A------------------
E------------------

I want to post or [tab]
guest
You may want to rate the tab now too:
select rating
Please do not post tabs as comments. Select "correction" instead!