Oops, an error
Loading. Please wait.

Digsys Dinner Tab

version 3
version 3

Whole song

Interactive

914 views 3 this week
no commentswrite comment
1 2 3 4 5
please rate
add to favorites
launch autoscroll
font size
0
reset
how to read this tab
guitar tuner
Tab Pro tools
  • play this tab
  • loop segment
  • change instrument
  • show fretboard
  • metronome
×
Best way to learn
"Digsys Dinner"
Autoscroll
slow
fast
+/-
esc
set tempo
stop
Contributor
#----------------------------------PLEASE NOTE---------------------------------#
#This file is the author's own work and represents their interpretation of the #
#song. You may only use this file for private study, scholarship, or research. #
#------------------------------------------------------------------------------#

DIGSYS DINNER
As recorded by Oasis
(From the 1993 Album DEFINITELY MAYBE)

Transcribed by Gareth Simpson
	

Words and Music by Noel Gallagher

A
5 7 7 6 5 5
	
C#7
x 4 6 4 6 x
	
D
x x 0 2 3 2
	
E
0 2 2 1 0 0

Dsus2
x x 0 2 3 0
	
D7
x x 0 2 1 2
	
Aopen
x 0 2 2 2 x
	
D/A
x 0 4 2 3 x

E7
0 2 2 1 3 0
	
F#m11
2 4 4 2 0 0
	
Bm7
x 2 4 2 3 x
	
B7sus2
x 2 4 2 2 x

Gtr I (E A D G B E) - 'Light Distortion'
Gtr II (E A D G B E) - 'Distortion'
Gtr III (E A D G B E) - 'Piano'

 Intro
  Q=138
  A              C#7             D                  E
 4/4
  Gtr I
  q  q  q  q     q  q  E E E E   Q  E E +E  E E E   Q  Q  Q  E E
  |  |  |  |     |  |  | | | |   |  | |  |  | | |   |  |  |  | |
  /  /  /  /     /  /  / / / /   /  / /  /  / / /   /  /  /  / /

  Gtr II
  Q  Q  Q  E E   Q  Q  Q   E E   Q  E E +E  E E E   Q  Q  Q  Q
|--------------|---------------|-2--2-2-(2)-2-2-2-|-0--0--0--0---|
|-5--5--5--5-5-|-6--6--6---6-6-|-3--3-3-(3)-3-3-3-|-0--0--0--0---|
|-6--6--6--6-6-|-4--4--4---4-4-|-2--2-2-(2)-2-2-2-|-1--1--1--1---|
|-7--7--7--7-7-|-6--6--6---6-6-|-0--0-0-(0)-0-0-0-|-2--2--2--2---|
|-7--7--7--7-7-|-4--4--4---4-4-|------------------|-2--2--2--2---|
|-5--5--5--5-5-|---------------|------------------|-0--0--0--0---|


  Dsus2              E
  Q  E E +E  E E E   Q  E E +E  E Q
  |  | |  |  | | |   |  | |  |  | |
  /  / /  /  / / /   /  / /  /  / /

  Q  E E +H          Q  E E +E  E Q
|----0-------------|-0--0-0-(0)-0-0--|
|-3----3-(3)-------|-0--0-0-(0)-0-0--|
|-2----------------|-1--1-1-(1)-1-1--|
|-0----------------|-2--2-2-(2)-2-2--|
|------------------|-2--2-2-(2)-2-2--|
|------------------|-0--0-0-(0)-0-0--|


  D7                          AopD/A     Aopen
  Q     Q     Q     E   E     Q  E E +E  Q  E
  |     |     |     |   |     |  | |  |  |  |
  /     /     /     /   /     /  / /  /  /  /

  |-3-| |-3-| |-3-| |--3--|
  E E E E E E E E E E E   E   Q  E E +E  Q  E
|-2-2-2-2-2-2-2-2-2-2-2---2-|-----------------|
|-1-1-1-1-1-1-1-1-1-1-1---1-|-2--3-3-(3)-2--2-|
|-2-2-2-2-2-2-2-2-2-2-2---2-|-2--2-2-(2)-2--2-|
|-0-0-0-0-0-0-0-0-0-0-0---0-|-2--4-4-(4)-2--2-|
|---------------------------|-0--0-0-(0)-0--0-|
|---------------------------|-----------------|


  A                  C#7
  Q  Q    Q     Q    Q  Q    Q     E E
  |  |    |     |    |  |    |     | |
  /  /    /     /    /  /    /     / /

  W                  W
|------5-(5)-------|------4-(4)--------|
|-5--5-------5-----|-6--6-------6------|
|-6----------------|-4-----------------|
|-7----------------|-6-----------------|
|-7----------------|-4-----------------|
|-5----------------|-------------------|
  Q  E E +E  Q.      Q  E E +E  Q.


  Dsus2               E7
  Q  E E +E  E  E E   Q  Q    Q     E E
  |  | |  |  |  | |   |  |    |     | |
  /  / /  /  /  / /   /  /    /     / /

  Q  E E +E  Q.       Q  E E +E  Q.
|------0-(0)--------|----0-------0-------|
|-3--3-------3------|------3-(3)---------|
|-2-----------------|-1------------------|
|-0-----------------|-2------------------|
|-------------------|-2------------------|
|-------------------|-0------------------|
  W                   W


  Dsus2              E7
  Q  E E +E  E E E   Q  E E +E E  Q
  |  | |  |  | | |   |  | |  | |  |
  /  / /  /  / / /   /  / /  / /  /

  Q  E E +E  Q   E   Q  E E  E Q.
|------0-(0)-------|----0------0-----|
|-3--3-------3-----|------0--3-------|
|-2--------------0h|=1---------------|
|-0----------------|-2---------------|
|------------------|-2---------------|
|------------------|-0---------------|
  W                  W


  D7                          Aopen  D/A Aopen
  Q     Q     Q     E   E     Q  E E +E  Q.
  |     |     |     |   |     |  | |  |  |
  /     /     /     /   /     /  / /  /  /

  |-3-| |-3-| |-3-| |--3--|
  E E E E E E E E E E E   E   Q  E E +E  Q.
|-2-2-2-2-2-2-2-2-2-2-2---2-|-----------------||
|-1-1-1-1-1-1-1-1-1-1-1---1-|-2--2-3-(3)-2----||
|-2-2-2-2-2-2-2-2-2-2-2---2-|-2--2-2-(2)-2----||
|-0-0-0-0-0-0-0-0-0-0-0---0-|-2--2-4-(4)-2----||
|---------------------------|-0--0-0-(0)-0----||
|---------------------------|-----------------||


 Verse
  $
  A                C#7               Dsus2               E7
  Q  Q    Q   Q    Q  Q    Q   E E   Q   E E +E  E E E   Q   Q   Q    E E
  |  |    |   |    |  |    |   | |   |   | |  |  | | |   |   |   |    | |
  /  /    /   /    /  /    /   / /   /   / /  /  / / /   /   /   /    / /

  Q  Q    Q   Q    Q  Q    Q   Q     H.            Q     W
|------5-(5)-----|------4-(4)------|-----0-------------|-------0---0-------|
|-5--5----5---5--|-6--6----6---6---|-3-----3-(3)---3---|---------3---------|
|-6--6----6---6--|-4--4----4---4---|-2-------------2---|---0h1-------------|
|-7--7----7---7--|-6--6----6---6---|-0-------------0---|-2-----------------|
|-7--7----7---7--|-4--4----4---4---|-------------------|-2-----------------|
|-5--5----5---5--|-----------------|-------------------|-0-----------------|
  Q  E E +H        Q  E E +H         Q   E E +Q    Q     E E E E E Q.


  Dsus2                E7
  Q   E E +E  E  E E   Q  E E +E  E  Q
  |   | |  |  |  | |   |  | |  |  |  |
  /   / /  /  /  / /   /  / /  /  /  /

  W                    W
|-------0-(0)--------|----0-------0-----|
|-3-----------3------|------3-(3)-------|
|-2------------------|-2----------------|
|-0------------------|-2----------------|
|--------------------|-2----------------|
|--------------------|-0----------------|
  Q.    E +E  Q.       Q  E E +E  Q.


  D7                          AopD/A     Aopen
  Q     Q     Q     E   E     Q  E E +E  Q  E
  |     |     |     |   |     |  | |  |  |  |
  /     /     /     /   /     /  / /  /  /  /

  |-3-| |-3-| |-3-| |--3--|
  E E E E E E E E E E E   E   Q  E E +E  Q  E
|-2-2-2-2-2-2-2-2-2-2-2---2-|-----------------||
|-1-1-1-1-1-1-1-1-1-1-1---1-|-2--3-3-(3)-2--2-||
|-2-2-2-2-2-2-2-2-2-2-2---2-|-2--2-2-(2)-2--2-||
|-0-0-0-0-0-0-0-0-0-0-0---0-|-2--4-4-(4)-2--2-||
|---------------------------|-0--0-0-(0)-0--0-||
|---------------------------|-----------------||


 Bridge
                                                                    To Coda
  A                C#7               Dsus2               E7
  Q  Q    Q   Q    Q  Q    Q   E E   Q  E E +E  E  E E   Q  Q    Q     E E
  |  |    |   |    |  |    |   | |   |  | |  |  |  | |   |  |    |     | |
  /  /    /   /    /  /    /   / /   /  / /  /  /  / /   /  /    /     / /

  Q  Q    Q   Q    Q  Q    Q   Q     W                   W
|------5-(5)-----|------4-(4)------|------0-(0)--------|----0-------0-------|
|-5--5----5---5--|-6--6----6---6---|-3--3-------3------|------3-(3)---------|
|-6--6----6---6--|-4--4----4---4---|-2-----------------|-1------------------|
|-7--7----7---7--|-6--6----6---6---|-0-----------------|-2------------------|
|-7--7----7---7--|-4--4----4---4---|-------------------|-2------------------|
|-5--5----5---5--|-----------------|-------------------|-0------------------|
  Q  E E +H        Q  E E +H         Q  E E +E  Q.       Q  E E +E  Q.


  Dsus2              E7
  Q  E E +E  E E E   Q  E E +E E  Q
  |  | |  |  | | |   |  | |  | |  |
  /  / /  /  / / /   /  / /  / /  /

  W                  Q  E E  E Q.
|------0-(0)-------|----0------0-----|
|-3--3-------3-----|------0--3-------|
|-2--------------0h|=1---------------|
|-0----------------|-2---------------|
|------------------|-2---------------|
|------------------|-0---------------|
  Q  E E +E  Q   E   W


  D7                          Aopen  D/A Aopen
  Q     Q     Q     E   E     Q  E E +E  Q.
  |     |     |     |   |     |  | |  |  |
  /     /     /     /   /     /  / /  /  /

  |-3-| |-3-| |-3-| |--3--|
  E E E E E E E E E E E   E   Q  E E +E  Q.
|-2-2-2-2-2-2-2-2-2-2-2---2-|-----------------||
|-1-1-1-1-1-1-1-1-1-1-1---1-|-2--2-3-(3)-2----||
|-2-2-2-2-2-2-2-2-2-2-2---2-|-2--2-2-(2)-2----||
|-0-0-0-0-0-0-0-0-0-0-0---0-|-2--2-4-(4)-2----||
|---------------------------|-0--0-0-(0)-0----||
|---------------------------|-----------------||


 Chorus
  F#m11                                 AopD/A     Aopen     D/A     A
  Q  Q    Q     Q    Q  Q    Q     Q    Q  E E +E  Q  E   Q  E E +E  Q.
  |  |    |     |    |  |    |     |    |  | |  |  |  |   |  | |  |  |
  /  /    /     /    /  /    /     /    /  / /  /  /  /   /  / /  /  /

  Q  E E +E  Q.      Q  E E +E  Q.      Q  E E +E  Q  E   Q  E E +E  Q.
|----0-------0-----|----0-------0-----|-----------------|------------------|
|------0-(0)-------|------0-(0)-------|-2--3-3-(3)-2--2-|-2--2-3-(3)-2-----|
|-2----------------|-2----------------|-2--2-2-(2)-2--2-|-2--2-2-(2)-2-----|
|-4----------------|-4----------------|-2--4-4-(4)-2--2-|-2--2-4-(4)-2-----|
|-4----------------|-4----------------|-0--0-0-(0)-0--0-|-0--0-0-(0)-0-----|
|-2----------------|-2----------------|-----------------|------------------|
  W                  W


  Bm7                            C#7
  Q  Q  Q  Q    Q    Q  Q   Q    Q  E E +Q   Q    Q     Q     Q     E   E
  |  |  |  |    |    |  |   |    |  | |  |   |    |     |     |     |   |
  /  /  /  /    /    /  /   /    /  / /  /   /    /     /     /     /   /

                                                  |-3-| |-3-| |-3-| |--3--|
  Q  Q  Q  Q    E Q.    E E q    Q  E E +Q   Q    E E E E E E E E E E E   E
|-------------|----------------|-4--4-4-(4)--4--|---------------------------||
|-3--3--3--3--|-5-3-------3-3--|-6--6-6-(6)--6--|-6-6-6-6-6-6-6-6-6-6-6---6-||
|-2--2--2--2--|-2-2-------2-2--|-4--4-4-(4)--4--|-4-4-4-4-4-4-4-4-4-4-4---4-||
|-4--4--4--4--|-4-4-------4-4--|-6--6-6-(6)--6--|-6-6-6-6-6-6-6-6-6-6-6---6-||
|-2--2--2--2--|-2-2-------2-2--|-4--4-4-(4)--4--|-4-4-4-4-4-4-4-4-4-4-4---4-||
|-------------|----------------|----------------|---------------------------||


 Verse
  A                C#7               Dsus2               E7
  Q  Q    Q   Q    Q  Q    Q   E E   Q  E E +E  E  E E   Q  Q    Q     E E
  |  |    |   |    |  |    |   | |   |  | |  |  |  | |   |  |    |     | |
  /  /    /   /    /  /    /   / /   /  / /  /  /  / /   /  /    /     / /

  Q  Q    Q   Q    Q  Q    Q   Q     W                   W
|------5-(5)-----|------4-(4)------|------0-(0)--------|----0-------0-------|
|-5--5----5---5--|-6--6----6---6---|-3--3-------3------|------3-(3)---------|
|-6--6----6---6--|-4--4----4---4---|-2-----------------|-1------------------|
|-7--7----7---7--|-6--6----6---6---|-0-----------------|-2------------------|
|-7--7----7---7--|-4--4----4---4---|-------------------|-2------------------|
|-5--5----5---5--|-----------------|-------------------|-0------------------|
  Q  E E +H        Q  E E +H         Q  E E +E  Q.       Q  E E +E  Q.


  Dsus2              E7
  Q  E E +E  E E E   Q  E E +E E  Q
  |  | |  |  | | |   |  | |  | |  |
  /  / /  /  / / /   /  / /  / /  /

  W                  Q  E E  E Q.
|------0-(0)-------|----0------0-----|
|-3--3-------3-----|------0--3-------|
|-2--------------0h|=1---------------|
|-0----------------|-2---------------|
|------------------|-2---------------|
|------------------|-0---------------|
  Q  E E +E  Q   E   W


  D7                          AopenD/A   Aopen
  Q     Q     Q     E   E     Q  E E +E  Q.
  |     |     |     |   |     |  | |  |  |
  /     /     /     /   /     /  / /  /  /

  |-3-| |-3-| |-3-| |--3--|
  E E E E E E E E E E E   E   Q  E E +E  Q.
|-2-2-2-2-2-2-2-2-2-2-2---2-|-----------------||
|-1-1-1-1-1-1-1-1-1-1-1---1-|-2--2-3-(3)-2----||
|-2-2-2-2-2-2-2-2-2-2-2---2-|-2--2-2-(2)-2----||
|-0-0-0-0-0-0-0-0-0-0-0---0-|-2--2-4-(4)-2----||
|---------------------------|-0--0-0-(0)-0----||
|---------------------------|-----------------||


 Interlude (piano solo)
  A                C#7               Dsus2             E
  Gtr I
  Q  Q  Q    Q      Q   Q  Q   Q     Q  E E +Q   Q      Q   E E +E E  Q
  |  |  |    |      |   |  |   |     |  | |  |   |      |   | |  | |  |
  /  /  /    /      /   /  /   /     /  / /  /   /      /   / /  / /  /

  Gtr III
  Q  Q  E  E E E   +Q   Q  E E E E   Q  Q    E Q   E   +Q   Q    E E +E  S S
|----------------|-----------------|-----------------|-----------------------|
|----------------|-----------------|-----------------|-----------------------|
|-9--9--9-11-9-7-|-(7)--7--7-9-7-6-|-6--6----7-6---9-|-(9)--9----------------|
|----------------|-----------------|-----------------|-----------4-7-(7)-7-9-|
|----------------|-----------------|-----------------|-----------------------|
|----------------|-----------------|-----------------|-----------------------|


  Dsus2             E
  Q  E E +E E Q      Q   E E +E E  Q
  |  | |  | | |      |   | |  | |  |
  /  / /  / / /      /   / /  / /  /

  Q  E E  E Q   E   +Q   Q    E E +E  S S
|-----------------|-----------------------|
|-----------------|-----------------------|
|-5--4-2--4-2---9-|-(9)--9----------------|
|-----------------|-----------4-7-(7)-7-9-|
|-----------------|-----------------------|
|-----------------|-----------------------|


  D7                            Aopen   D/A   Aopen
  |-3-| |-3-| |--3--| |--3--|
  E E E E E E E E   E E E   E    Q    E E +E  Q.
  | | | | | | | |   | | |   |    |    | |  |  |
  / / / / / / / /   / / /   /    /    / /  /  /

  Q     Q     E   E   E   E     +E  E E E +E  Q   E
|-----------------------------|----------------------||
|-----------------------------|----------------------||
|-5-----5-----5---4---5---6---|-(6)-4-6-7-(7)-6------||
|-----------------------------|----------------------||
|-----------------------------|----------------------||
|-----------------------------|----------------------||


 Chorus
  F#m11                                 AopenD/A      Aopen      D/A Aopen
  Gtr I
  Q  Q    Q     Q    Q  Q    Q     Q    Q  E E +E  Q  E   Q  E E +E  Q.
  |  |    |     |    |  |    |     |    |  | |  |  |  |   |  | |  |  |
  /  /    /     /    /  /    /     /    /  / /  /  /  /   /  / /  /  /

  Gtr II
  Q  E E +E  Q.      Q  E E +E  Q.      Q  E E +E  Q  E   Q  E E +E  Q.
|----0-------0-----|----0-------0-----|-----------------|------------------|
|------0-(0)-------|------0-(0)-------|-2--3-3-(3)-2--2-|-2--2-3-(3)-2-----|
|-2----------------|-2----------------|-2--2-2-(2)-2--2-|-2--2-2-(2)-2-----|
|-4----------------|-4----------------|-2--4-4-(4)-2--2-|-2--2-4-(4)-2-----|
|-4----------------|-4----------------|-0--0-0-(0)-0--0-|-0--0-0-(0)-0-----|
|-2----------------|-2----------------|-----------------|------------------|
  W                  W


  Bm7              B7suBm7
  Q  Q    Q   Q    Q   Q  Q    Q
  |  |    |   |    |   |  |    |
  /  /    /   /    /   /  /    /

  Q  E E +Q   Q    E H      Q.
|----------------|----------------|
|-3--3-3-(3)--3--|-2-3------3-----|
|-2--2-2-(2)--2--|-2-2------2-----|
|-4--4-4-(4)--4--|-4-4------4-----|
|-2--2-2-(2)--2--|-2-2------2-----|
|----------------|----------------|


                                  D.S. al Coda
  C#7
  Q  E E +E  E Q    Q     Q     Q     E   E
  |  | |  |  | |    |     |     |     |   |
  /  / /  /  / /    /     /     /     /   /

                    |-3-| |-3-| |-3-| |--3--|
  Q  E E +E  E Q    E E E E E E E E E E E   E
|-4--4-4-(4)-4-4--|------------------------------||
|-6--6-6-(6)-6-6--|-6-6-6-6-6-6-6-6-6-6-6---6----||
|-4--4-4-(4)-4-4--|-4-4-4-4-4-4-4-4-4-4-4---4----||
|-6--6-6-(6)-6-6--|-6-6-6-6-6-6-6-6-6-6-6---6----||
|-4--4-4-(4)-4-4--|-4-4-4-4-4-4-4-4-4-4-4---4----||
|-----------------|------------------------------||


 Outro
  &
  Dsus2               E                    Dsus2               E
  Q  E E +E  E  E E   Q    E E +E E   Q    Q  E E +E  E  E E   Q  E E +E E Q
  |  | |  |  |  | |   |    | |  | |   |    |  | |  |  |  | |   |  | |  | | |
  /  / /  /  /  / /   /    / /  / /   /    /  / /  /  /  / /   /  / /  / / /

  W                   Q  a Q    Q   a Q    W                   Q  Q    Q   Q
|------0-(0)--------|-0----0----0-----0--|------0-(0)--------|-0--0----0---0---|
|-3--3-------3------|-0----0----0-----0--|-3--3-------3------|-0--0----0---0---|
|-2-----------------|-1p=0-1----1p==0-1--|-2-----------------|-1--1----1---1---|
|-0-----------------|-2----2----2-----2--|-0-----------------|-2--2----2---2---|
|-------------------|-2----2----2-----2--|-------------------|-2--2----2---2---|
|-------------------|-0----0----0-----0--|-------------------|-0--0----0---0---|
  Q  E E +E  Q.                            Q  E E +E  Q.


                                                     H.=H
  Dsus2               E                D7            Aopen
                                       |-3-| |-3-|
  Q  E E +E  E  E E   Q  E E +E E Q    Q Q Q Q Q Q   W
  |  | |  |  |  | |   |  | |  | | |    | | | | | |   |
  /  / /  /  /  / /   /  / /  / / /    / / / / / /   /

                                       |-3-| |-3-|
  W                   Q  Q    Q   Q    Q Q Q Q Q Q   W
|------0-(0)--------|-0--0----0---0--|-2-2-2-2-2---|------|
|-3--3-------3------|-0--0----0---0--|-1-1-1-1-1---|-2----|
|-2-----------------|-1--1----1---1--|-2-2-2-2-2-0-|-2----|
|-0-----------------|-2--2----2---2--|-0-0-0-0-0-0-|-2----|
|-------------------|-2--2----2---2--|-----------0-|-0----|
|-------------------|-0--0----0---0--|-------------|------|
  Q  E E +E  Q.


  +W                 +W
   |                  |
   /                  /

            |-3-|
   E E E. S Q Q Q     H    H
|------------------|------------*|
|------3----3p2----|------------*|
|---------------2--|------------*|
|--2-4----4--------|--2---------*|
|------------------|-------0----*|
|------------------|------------*|



Duration Legend
---------------
W - whole; H - half; Q - quarter; E - 8th; S - 16th; T - 32nd; X - 64th; a - acciaccatura
+ - note tied to previous; . - note dotted; .. - note double dotted
Uncapitalized letters represent notes that are staccato (1/2 duration)
Irregular groupings are notated above the duration line
Duration letters will always appear directly above the note/fret number it represents the
duration for.  Duration letters with no fret number below them represent rests.  Multi-
bar rests are notated in the form Wxn, where n is the number of bars to rest for.  Low
melody durations appear below the staff

Tablature Legend
----------------
 h   - hammer-on
 p   - pull-off
 b   - bend
 pb  - pre-bend
 r   - bend release (if no number after the r, then release immediately)
 /\  - slide into or out of (from/to "nowhere")
 s   - legato slide
 S   - shift slide
 - natural harmonic
[n]  - artificial harmonic
n(n) - tapped harmonic
 ~   - vibrato
 tr  - trill
 T   - tap
 TP  - trem. picking
 PM  - palm muting
\n/  - tremolo bar dip; n = amount to dip
 \n  - tremolo bar down
 n/  - tremolo bar up
/n\  - tremolo bar inverted dip
 =   - hold bend; also acts as connecting device for hammers/pulls
 <> - volume swell (louder/softer)
 x   - on rhythm slash represents muted slash
 o   - on rhythm slash represents single note slash

Misc Legend
-----------
 |  - bar
||  - double bar
||o - repeat start
o|| - repeat end
*|  - double bar (ending)
 :  - bar (freetime)
 $  - Segno
 &  - Coda
Tempo markers -  = BPM(8/16=s8/s16), where s8 = swing 8ths, s16 = swing 16ths

comments
We did not receive enough feedback on this tab! Please rate:
print report bad tab
1 2 3 4 5
I want to post or [tab]
guest
You may want to rate the tab now too:
select rating
Please do not post tabs as comments. Select "correction" instead!