Oops, an error
Loading. Please wait.

Dont Go Away Tab

version 1
version 1

Intro

Whole song

Interactive

17,360 views 9 this week
2 commentsread comments
1 2 3 4 5
worth learning
x 7
add to favorites
launch autoscroll
font size
0
reset
how to read this tab
guitar tuner
Tab Pro tools
  • play this tab
  • loop segment
  • change instrument
  • show fretboard
  • metronome
×
Best way to learn
"Dont Go Away"
Autoscroll
slow
fast
+/-
esc
set tempo
stop
guifrank@hotmail.com
artist: oasis
title: don´t go away

E|------------------------------------------------------------------------------
B|------------------------------------------------------------------------------
G|------------7^9-7-5-7-5------------------------7^9-7-5-7-5------------5-------
D|------------------------7~~--------------------------------7~~-----------7----
A|------3-5~~-----------------5-6----------3-5~~---------------5-6--------------
E|-3-5----------------------------6-5--3-5-------------------------6-5----------


no es mucho pero espero que les guste..
comments
print report bad tab
2 comments total.
0 reply
tbarrettl wrote on January 31 2007, 08:38 pm

try this
Intro: Am G Fmaj7
E-----------------------------------------------------
B-----------------------------------------------------
G------------5---7----------(9)-----7---5---7---5-----
D----5---7-----------------------------------------7--
A-----------------------------------------------------
E-----------------------------------------------------

Dm G (x2)
---------------------------------|-----------------------|
---------------------------------|-----------------------|
---------------------------------|---5-------------------|
------------------------------7--|--------7--------------|
-----------X--X--5--(7)----------|-----------------------|
-------------------------5-------|-----------------------|

it sounds more like the real thing

0 reply
tbarrettl wrote on January 31 2007, 08:39 pm

not quite right, added junk

I want to post or [tab]
guest
You may want to rate the tab now too:
select rating
Please do not post tabs as comments. Select "correction" instead!