Oops, an error
Loading. Please wait.

Dont Look Back In Anger Live Tab

version 1
version 1

Acoustic

20,022 views 3 this week
1 commentread comment
1 2 3 4 5
accurate
x 3
add to favorites
launch autoscroll
font size
0
reset
how to read this tab
guitar tuner
Tab Pro tools
  • play this tab
  • loop segment
  • change instrument
  • show fretboard
  • metronome
×
Best way to learn
"Dont Look Back In Anger Live"
Autoscroll
slow
fast
+/-
esc
set tempo
stop
Contributor
http://www.purevolume.com/beingidles

Esta es la version semiacustica q estan haciendo ultimamente. 
El solo deja lugar para boludedar un poco....
                                                
Solo Gem (sin transportar)
  
---------------------------------------|
--14br----14br----14br----12-----------|
------------------------------11---13--|
---------------------------------------|
---------------------------------------|
---------------------------------------|


--------------------------------------------------------------|
--14br----14br----14br----12----------------------------------|
------------------------------11----13--11------11------------|
---------------------------------------------13----13-11-9----|
--------------------------------------------------------------|
--------------------------------------------------------------|

   
-------------------------------------------------------|
--14br----14br----14br----12---------------------------|
------------------------------11---13------------13br--|
-------------------------------------------------------|
-------------------------------------------------------|
-------------------------------------------------------|


------------------------------------------------------|
------------------------------------------------------|
--------------13--11------11--------------------------|
--11--11--13----------13------13---11--------9--------|
------------------------------------------------------|
------------------------------------------------------|

   
----------------------------------------------------|
----------------------------------------------------|
----------------------------------------------------|
--13--11--9------9----11--13--11--9------9----11----|
-------------11----------------------11-------------|
----------------------------------------------------|


------------------------------|
--------------12--14----11----|
------11--13------------------|
--13--------------------------|
------------------------------|
------------------------------|

-------------------------------------------------------------------------

Noel: transportar al 4º

Chords:
G 320033
G\F# 200033
Em7 022033
B x20033
Cadd9 x32033
Dsus4 xx0233
D xx0232
B7 x21202
Em7* 022030
Cm x31033 (o para no complicarse tanto: x30033)


G              G/F#          Em7
Slip inside the eye of your mind
 B                       Cadd9 
Don't you know you might find
Dsus4           G       Em7 Dsus4    
A better place to play 



You said that you've never been 
But all the things that you've seen 
They slowly fade away 



Cadd9                Cm               G
So I'll start a revolution from my bed
Cadd9                     Cm               G
'Cuz you said the brains I had went to my head 
Cadd9            Cm              G
Step outside, summertime's in bloom 
D
Stand up beside the fireplace 
B7
Take that look from off your face 
Em7            Dsus4       Cadd9    D  Dsus4  D
You ain't ever gonna burn my heart out 

Chorus

G      G/F#       Em7
And so, Sally can wait 
 B                 Cadd9        
She knows it's too late
         Dsus4      G    Em7 Dsus4
as we're walking on by 

G       G/F#     Em7
Her soul slides away 
 B              Cadd9
But don't look back in anger
Dsus4        G    G/F#    Em7   B   Cadd9   Dsus4   G   Em7  Dsus4  
I heard you say 


Take me to the place where you go 
Where nobody knows 
Where nobody knows if it's night or day
 
Please don't put your life in the hands 
Of a rock and roll band 
Who'll throw it all away
 
I'm gonna start a revolution from my bed 
'Cuz you said the brains I had went to my head 
Step outside, 'cuz summertime's in bloom 
Stand up beside the fireplace 
Take that look from off your face 
'Cuz you ain't ever gonna burn my heart out 

And so, Sally can wait 
She knows it's too late as she's walking on by 
My soul slides away 
But don't look back in anger 
I heard you say 

Solo: Cadd9 Cm G (x3) D  B7  Em7  Dsus4  Cadd9  D

So, Sally can wait 
She knows it's too late as we're walking on by 
Her soul slides away 
But don't look back in anger 
I heard you say 

So, Sally can wait 
She knows it's too late as she's walking on by 
My soul slides away 

                Cadd9
But don't look back in anger 
           Cm
Don't look back in anger 
                  G  G/F#  Em7   B   Cadd9  Dsus4
I heard you say 
                G
At least not today. 

                   http://www.purevolume.com/beingidles
comments
We did not receive enough feedback on this tab! Please rate:
print report bad tab
1 2 3 4 5
1 comment total.
0 reply
Live4ever1234 wrote on June 4 2009, 06:08 pm

Nice tab man.

I want to post or [tab]
guest
You may want to rate the tab now too:
select rating
Please do not post tabs as comments. Select "correction" instead!