Oops, an error
Loading. Please wait.

Dont Look Back In Anger Live Tab

version 2
version 2

Solo

2,899 views 1 this week
no commentswrite comment
1 2 3 4 5
3 more votes to show rating
add to favorites
launch autoscroll
font size
0
reset
how to read this tab
guitar tuner
Autoscroll
slow
fast
+/-
esc
set tempo
stop
Help us to improve Ultimate-Guitar.com Take our survey!
×
e---------------------------------------------------------------|
B-------------------------------------------------8-------------|
G-------7b9r7-7b9r7-7b9r7--5-----------5---5-—7b9---9b7--5-5~.--|
D-----------------------------5---5h7----7----------------------|
A---------------------------------------------------------------|
E---------------------------------------------------------------|

e------------------------------------------------------------------------------|
B------------------------------------------------------------------------------|
G--7-5--7b9r7-7b9r7-7b9r7--5-----5---5--------------------------------------5~.|
D-----------------------------5--5h7-5------5--------------------------5--7----|
A---------------------------------------5h7---5h7h5/3---------3h5--5s7---------|
E------------------------------------------------------3—3h5-------------------|
Fm C G
e------------------------------------8—(8)--8h10--8-------8------8------8---|
B----------------------------8h10-8------------------8h10---8h10---8h10-----|
G--(5)--7b9--7--5-----5--7/9------------------------------------------------|
D-----------------7---------------------------------------------------------|
A---------------------------------------------------------------------------|
E---------------------------------------------------------------------------|

e------8------8--8h10p8------8------8------8------8------------------------------|
B-8h10---8h10-----------8h10---8h10---8h10---8h10---8---17-----17----17----------|
G-------------------------------------------------------19b21-19b21-19b21--------|
D--------------------------------------------------------------------------------|
A--------------------------------------------------------------------------------|
E--------------------------------------------------------------------------------|
G F
e----------------------------------------------------------------------------|
B-17----17----17----17----17----17-------------------------------------------|
G-19b21-19b21-19b21-19b21-19b21-19b21---21b19--17—-17—-19b21---17----17-17~.-|
D------------------------------------------------19---------------19---------|
A----------------------------------------------------------------------------|
E----------------------------------------------------------------------------|
G C
e------------------------------------------------------------|
B----------------17----17----17----17----17------------------|
G------19h17-19--19b21-19b21-19b21-19b21-19b21.~/~/~---------| SO SALLY CAN……
D------------------------------------------------------------|
A------------------------------------------------------------|
E-----------------------------------------------------15///~-|
Suggest correction
Give kudos to tab author, rate the tab!
1 2 3 4 5
comments
print report bad tab
guest
You may want to rate the tab now too:
select rating
Wanna post a correction for this tab? Suggest correction