Oops, an error
Loading. Please wait.

Dont Look Back In Anger Tab

version 1
version 1
131,477 views 54 this week
8 commentsread comments
1 2 3 4 5
x 12
add to favorites
launch autoscroll
font size
0
reset
how to read this tab
guitar tuner
Autoscroll
slow
fast
+/-
esc
set tempo
stop
Help us to improve Ultimate-Guitar.com Take our survey!
×
Author
From the album (Whats the story?) Morning Glory

[AbDim] - D|--6--
          A|--5--
          E|--4--

[Intro]

This is what the piano plays - if you just want to strum straight chords
like on the MTV unplugged CD they are C and Fmaj7.

e|----------------------|
B|--1----1----1----1----|
G|--0----0----0----0----|
D|--2----2----2----2----|
A|----3----3----3----3--|
E|----------------------|

e|----------------------|
B|--1----1----1----1----|
G|--2----2----2----2----|
D|--3----3----3----3----|
A|----3----3----3----3--|
E|----------------------|

Play through twice

[Verse Chorus
]

C C G G Am Am E E F F G G C C Am G x2

[Interlude] (So I start a revolution from my bed...)
F F Fm Fm C C C C x3
G G G G AbDim AbDim AbDim AbDim Am Am G G F F F F
G G G G G G G G

[Solo] (Not on unplugged version)
e|------------------------------------------|
B|------------------------------------------|
G|--7b-7b-7b-5--------5-5---5-7-5-5-----7-5-|
D|-------------5--5h7---5h7---------7-7-----|
A|------------------------------------------|
E|------------------------------------------|

e|-------------------------------------|
B|-------------------------------------|
G|--7b-7b-7b-5----5---5----------------|
D|-------------5--5h7-5-------5--------|
A|----------------------7-5s7---7s5-3--|
E|-------------------------------------|

e|----------------------------------------8-8-8h10-8--|
B|---------------------------------8-8-10-------------|
G|----------------5-5-7b-5---5-7s9--------------------|
D|------------5-7----------7--------------------------|
A|----0-3-5s7-----------------------------------------|
E|--1-------------------------------------------------|

e|-------8-|
B|--8h10---| x5
G|---------|

D|---------|
A|---------|
E|---------|

e|--8h10p8- x1
B|---------|
G|---------|
D|---------|
A|---------|
E|---------|

e|-------8-|
B|--8h10---| x3
G|---------|
D|---------|
A|---------|
E|---------|

e|--8s0--|
B|--8s0--|
G|---------|
D|---------|
A|---------|
E|---------|

e|---------------------------------------|
B|--17--17--17--17--17--17-17-17--17-17--|
G|--19b-19b-19b-19b-19b-------19b--------|
D|---------------------------------------|
A|---------------------------------------|
E|---------------------------------------|

E|-------------------17------------------|
B|-----------------------------17-----17-|
G|--19b-17-19-17-19b----19-19b----19b----|
D|---------------------------------------|
A|---------------------------------------|
E|---------------------------------------|

e|----------------------------------------|
B|--17--17--17--17--17--17-17-17--17-17s0-|
G|--19b-19b-19b-19b-19b-------19b---------|
D|----------------------------------------|
A|----------------------------------------|
E|----------------------------------------|

Structure
[Intro]
[Verse]
[Interlude]
[Chorus]
[Verse]
[Interlude]
[Chorus]
[Solo]
[Chorus]

Thats a rap. Im sure this is accurate.
Peace out. Abe.
Suggest correction
comments
print report bad tab
8 comments total. Showing first comments.
0 reply
John Alexander 110 Jul 16, 2003 12:00 AM

The intro isn't wrong, but it sounds a bit better if it's played like this...

e-----------------------
B--1--------------------
G--0----0---0---0-------
D--2--2---2---2---2-----
A--3--------------------
E-----------------------

e--------------------------
B--1-----------------------
G--2----2---2b1----1-------
D--3--3---3-----3-----3----
A--3-----------------------
E--------------------------

Play twice, like before

0 reply
Abe 394 Jul 19, 2003 12:00 AM

thats very fussy... u cuda rated it, but yes it does sound good.

0 reply
Señor 110 Jun 23, 2004 12:00 AM

u got the solo wrong. i dont mean the whole solo but the beginning isn't correct.

guest
You may want to rate the tab now too:
select rating
Wanna post a correction for this tab? Suggest correction