Oops, an error
Loading. Please wait.

Gas Panic Bass Tab

version 1
version 1

Whole song

Interactive

4,884 views 12 this week
no commentswrite comment
1 2 3 4 5
accurate
x 5
add to favorites
launch autoscroll
font size
0
reset
guitar tuner
Tab Pro tools
  • play this tab
  • loop segment
  • change instrument
  • show fretboard
  • metronome
Autoscroll
slow
fast
+/-
esc
set tempo
stop
Gas Panic Bass Tab:
No one has even attempted this(that i have seen)
So here is the tab for Gas Panic

Send all comments to case@jj72.org

Intro:
|-------------
|-------------
|-4~---6~-----
|-----------6~
There are little fills before the above is repeated.
the little fills are as follows:
|-----------------  |--------6------  |---------------
|-8~--6-8-6-8-6---  |-8~--6-8-8-6---  |--6-8-8--8-6---
|--------------8\4  |------------8\4  |-8----------8\4
|-----------------  |---------------  |---------------
Then when Liam says 'you better get on your knees and pray...',
play the following:
|---------
|---------
|-6~----8~
|---------

Then once the drums kick in,
The Verse:
|----------------------------------------------------
|-----------4-6-6--4---------------6-8--8-8-8-8-6----
|-4-4-4-4-6----------6-4---------8----------------8\4
|------------------------6-6-6-----------------------

|-----------------------------------6---------
|-----------4-6-6--4---------8--6-8---8--6----
|-4-4-4-4-6----------6-4-------------------8\4
|------------------------6-6------------------
Repeat until 'You better get on your knees...'
When you play:
|---------------------------------
|---------------------------------
|-6-6-6-6-6-6-6-6--8-8-8-8-8-8-8-8
|---------------------------------
Then its:
|----------------------------------------------
|----------------------------8--6-8-8-6-8-6----
|-4--4-4-4-6-6-4-6-4-6-4--------------------8\4
|------------------------6-6-------------------
until solo

Solo:
|-----------6-----------------------------------------6-----------
|-----8-6-8---8-6---------8-6-8-8-6-8-6-8-6-----8-6-8---8-6-8-6---
|-----------------8\4-4-4-------------------6-6-----------------8\
|-6-6-------------------------------------------------------------
Repeat until:
|-----------------------------------8~-6~------------
|----------------------------------------8~-6~-------
|-4-4-4-4-4-4-4-4--6-6-6-6-6-6-6-6------------8-6-6\4 
|----------------------------------------------------
thats about it.
except on familiar to millions they play the ending as follows:

|---------------------------------------
|---------------------------------------
|-------4---4-666666-4-----4-6-4--------
|-6-6-6---6------------6-6-------4-6-6-6

Rikki Strang
Bassist for Case.
comments
print report bad tab
I want to post or [tab]
guest
You may want to rate the tab now too:
select rating
Please do not post tabs as comments. Select "correction" instead!