Oops, an error
Loading. Please wait.

Go Let It Out Tab

version 2
version 2

Whole song

Interactive

12,268 views 12 this week
2 commentsread comments
1 2 3 4 5
accurate
x 4
add to favorites
launch autoscroll
font size
0
reset
how to read this tab
guitar tuner
Autoscroll
slow
fast
+/-
esc
set tempo
stop
Help us to improve Ultimate-Guitar.com Take our survey!
×
Author
GO LET IT OUT
Written by Noel Gallagher
CHORDS USED
A7 A D Fmaj7 G Cadd9
0--0-2---0---3---3---|
2--2-3---1---3---3---|
0--2-2---2---0---0---|
2--2-0---3---0---2---|
0--0-----3---2---3---|
---------1---3-------|
(INTRO DRUM LOOP THEN COUNT IN)
A7 (for 2 bars)
VERSE 1
A7
Make no illusion try to click with what you got
A7
Taste every potion to see if you like yourself a lot
CHORUS
          D
Go let it out
          Fmaj7    G
Go let it in
          A7
Go let it out
(Click with the bass!)
VERSE 2
A7
Life is precocious in the most peculiar way
A7
Sister psychosis don't got a lot to say
CHORUS
              D
She go let it out
              F    G
She go let it in
              A
She go let it out
(REPEAT)
BRIDGE
D               Fmaj7      A7          Cadd9
   Is there any wonder why princes and kings
D                  Fmaj7          A7      Cadd9
   And clowns that caper in their sawdust ringsD           Fmaj7           A7           Cadd9
   Ordinary people that are like you and me
          G                      D
We're the builders of their destiny
          G                     D
We're the keepers of their destiny
A7 (2 bars)
VERSE 3
          A7
I'm gonna leave in the city I'm gonna drive him out of town
    A7
And you're coming with me the right time is always now
CHORUS
             D
So go let in out
              Fmaj7    G
An' go let it in
              A7
An' go let it out
(REPEAT)
(REPEAT BRIDGE, LAST LINE 4 TIMES)
LINK
--2---2----3---3----4---4-----3---3--|
----3--------3--------3---------3----|
-------------------------------------|
0-------0--------0---------0---------|
-------------------------------------|
-------------------------------------|
(x3 THEN;)
  (GUITAR 1)
--2---2----3---3----4---4-----4---4-----4---4-----4---4----|
----3--------3--------3---------3---------3---------3------|
-----------------------------------------------------------|
0-------0--------0---------0---------0---------0-----------|
-----------------------------------------------------------|
-----------------------------------------------------------|
  (GUITAR 2)
                                          (feedback)
G -------------------------------------7~~~~7~~~~7~~~~7~~~~
OUTRO CHORUS
          D
Go let it out
          Cadd9  G
Go let it in
          D
Go let it out
             Cadd9   G
Don't let it in
          D
Go let it out
          Cadd9  G
Go let it in
          D
Go let it out
                Cadd9                 G
Don't let it in don't let it in don't let it in
SOLO
                       BU  BD       BU  BD
E-----------------------------------------------|
B--7--8--10---8-7-------------------------------|
G------------------11-(12)-11-9--9-(11)-9--7--7-|
(x3, THEN)
                       BU  BD         S
E-----------------------------------8/10-10-10-10-10-10-10-10---|
B--7--8--10---8-7-----------------------------------------------|
G------------------11-(12)-11-9--9------------------------------|
CODA
(GUITAR 1: FINGER PICKING)
---4---4-------2---2-----|
-----3---3-------3---3---|
-------------------------|
0-----------0------------|
-------------------------|
-------------------------|
(REPEAT TO FADE)
(GUITAR 2: SOLO)

(GUITAR 2: SOLO)
-------------------------------------------------------------------------------------|
-----------------------------------------------13-(15)-13--10------------------------|
----10----10---------10----10--------10----10------------------12--12-(14)-12--10----|
/12----12----12--/12----12----12-/12----12----------------------------------------12-|
-------------------------------------------------------------------------------------|
-------------------------------------------------------------------------------------|
(REPEAT TO FADE)
Suggest correction
comments
print report bad tab
2 comments total.
0 reply
Calcal123 30 wrote on October 7 2009, 11:40 am

ive just realised its 'pick up the bass' and 'paint no illusion'
sorry!

+2 reply
CAPTAINBEEFHEAR 167 wrote on February 28 2011, 02:18 am

nice tab mate. in the solo right at the end, to be pedantic of me, theres a hammer-on G string 10h12, listen out for it. cheers

guest
You may want to rate the tab now too:
select rating
Please do not post tabs as comments. Select "correction" instead!