Oops, an error
Loading. Please wait.

Half The World Away Tab

version 2
version 2

Whole song

Interactive

Video

7,371 views 3 this week
no commentswrite comment
1 2 3 4 5
poor
x 1
add to favorites
launch autoscroll
font size
0
reset
how to read this tab
guitar tuner
Tab Pro tools
  • play this tab
  • loop segment
  • change instrument
  • show fretboard
  • metronome
×
Best way to learn
"Half The World Away"
Autoscroll
slow
fast
+/-
esc
set tempo
stop
Contributor
                      HALF THE WORLD AWAY
                              As recorded by Oasis
      (From the 1998 Album THE MASTERPLAN (ALSO FOUND ON WHATEVER SINGLE))

Words and Music by Noel Gallagher


           C                  Fmaj7                 Am                   D7
      x 3 2 0 1 0          x x 3 2 1 0          x 0 2 2 1 0          x x 0 2 1 2

          G7                    G                  Asus2                  F
      3 2 0 0 0 1          3 2 0 0 3 3          x 0 2 2 0 0          1 3 3 2 1 1

          Fm                   C/B                  E7
      1 3 3 1 1 1          x 2 x 0 1 0          0 2 0 1 0 0

Gtr I (E A D G B E) - 'Untitled'
Gtr II (E A D G B E) - 'Untitled'

 Intro
  Q=110(8=s8)
  C                       Fmaj7
 4/4
  Gtr II
  E +E  E E +E  E  E  E   E +E E E +E  E E E
  |  |  | |  |  |  |  |   |  | | |  |  | | |
  /  /  / /  /  /  /  /   /  / / /  /  / / /

  Gtr I
  E +E  E E +E  E +E  E   E  E E E +E  E E E
|---------0-(0)---------|--------0-(0)-------|
|-------1-------1-(1)---|----1---------1-----|
|---------------------0-|------0---------0---|
|-----------------------|-3----------------3-|
|-3-(3)-----------------|--------------------|
|-----------------------|--------------------|


  C                       Fmaj7
  E +E  E E +E  E  E  E   E +E E E +E  E E E
  |  |  | |  |  |  |  |   |  | | |  |  | | |
  /  /  / /  /  /  /  /   /  / / /  /  / / /

  E +E  E E +E  E +E  E   E  E E E +E  E E E
|---------0-(0)---------|--------0-(0)--------|
|-------1-------1-(1)---|----1---------1------|
|---------------------0-|------0---------0----|
|-----------------------|-3----------------3--|
|-3-(3)-----------------|---------------------|
|-----------------------|---------------------|


   Verse
    C                       Fmaj7
    E +E  E E +E  E  E  E   E +E E E +E  E E E
    |  |  | |  |  |  |  |   |  | | |  |  | | |
    /  /  / /  /  /  /  /   /  / / /  /  / / /

    E +E  E E +E  E +E  E   E  E E E +E  E E E
||----------0-(0)---------|--------0-(0)-------|
||o-------1-------1-(1)---|----1---------1-----|
||----------------------0-|------0---------0---|
||------------------------|-3----------------3-|
||o-3-(3)-----------------|--------------------|
||------------------------|--------------------|


  C                       Fmaj7
  E +E  E E +E  E  E  E   E +E E E +E  E E E
  |  |  | |  |  |  |  |   |  | | |  |  | | |
  /  /  / /  /  /  /  /   /  / / /  /  / / /

  E +E  E E +E  E +E  E   E  E E E +E  E E E
|---------0-(0)---------|--------0-(0)--------|
|-------1-------1-(1)---|----1---------1------|
|---------------------0-|------0---------0----|
|-----------------------|-3----------------3--|
|-3-(3)-----------------|---------------------|
|-----------------------|---------------------|


  C        C/B        Am     Asus2 Am
  E +E E E E +E E E   E +E E E +E  E E E
  |  | | | |  | | |   |  | | |  |  | | |
  /  / / / /  / / /   /  / / /  /  / / /

  E  E E E E  E E E   E  E E E +E  E E E
|----0--------0-----|--------------------|
|------1--------1---|------1-0-(0)-1-----|
|--------0--------0-|----2-----------2---|
|-------------------|------------------0-|
|-3--------2--------|-0------------------|
|-------------------|--------------------|


  D7                   Fmaj7
  E +E E E +E  E E E   E +E E E +E  E E  E
  |  | | |  |  | | |   |  | | |  |  | |  |
  /  / / /  /  / / /   /  / / /  /  / /  /

  E  E E E +E  E E E   E  E E E +E  E E +E
|-2------3-(3)-2-----|--------0-(0)---------|
|----1-----------1---|----1---------1-------|
|------2-----------2-|------0---------0-(0)-|
|--------------------|-3--------------------|
|--------------------|----------------------|
|--------------------|----------------------|


  C                       Fmaj7
  E +E  E E +E  E  E  E   E +E E E +E  E E E
  |  |  | |  |  |  |  |   |  | | |  |  | | |
  /  /  / /  /  /  /  /   /  / / /  /  / / /

  E +E  E E +E  E +E  E   E  E E E +E  E E E
|---------0-(0)---------|--------0-(0)-------|
|-------1-------1-(1)---|----1---------1-----|
|---------------------0-|------0---------0---|
|-----------------------|-3----------------3-|
|-3-(3)-----------------|--------------------|
|-----------------------|--------------------|


  C                       Fmaj7
  E +E  E E +E  E  E  E   E +E E E +E  E E E
  |  |  | |  |  |  |  |   |  | | |  |  | | |
  /  /  / /  /  /  /  /   /  / / /  /  / / /

  E +E  E E +E  E +E  E   E  E E E +E  E E E
|---------0-(0)---------|--------0-(0)-------|
|-------1-------1-(1)---|----1---------1-----|
|---------------------0-|------0---------0---|
|-----------------------|-3----------------3-|
|-3-(3)-----------------|--------------------|
|-----------------------|--------------------|


  C        C/B        Am     Asus2 Am
  E +E E E E +E E E   E +E E E +E  E E E
  |  | | | |  | | |   |  | | |  |  | | |
  /  / / / /  / / /   /  / / /  /  / / /

  E  E E E E  E E E   E  E E E +E  E E E
|----0--------0-----|--------------------|
|------1--------1---|------1-0-(0)-1-----|
|--------0--------0-|----2-----------2---|
|-------------------|------------------0-|
|-3--------2--------|-0------------------|
|-------------------|--------------------|


  D7                   Fmaj7
  E +E E E +E  E E E   E +E E E +E  E E  E
  |  | | |  |  | | |   |  | | |  |  | |  |
  /  / / /  /  / / /   /  / / /  /  / /  /

  E  E E E +E  E E E   E  E E E +E  E E +E
|-2------3-(3)-2-----|--------0-(0)---------|
|----1-----------1---|----1---------1-------|
|------2-----------2-|------0---------0-(0)-|
|--------------------|-3--------------------|
|--------------------|----------------------|
|--------------------|----------------------|


 Chorus
  Am                    C
  E +E  E E +E  E E E   E +E  E E +E  E E E
  |  |  | |  |  | | |   |  |  | |  |  | | |
  /  /  / /  /  / / /   /  /  / /  /  / / /

  E +E  E E +E  E E E   E +E  E E +E  E E E
|---------0-(0)-------|---------0-(0)-------|
|---------------1-----|---------------1-----|
|-----------------2---|-----------------0---|
|-------2-----------2-|-------2-----------2-|
|-0-(0)---------------|-3-(3)---------------|
|---------------------|---------------------|


  E7                    Am     Asus2
  E +E  E E +E  E E E   E +E E E +E  E E E
  |  |  | |  |  | | |   |  | | |  |  | | |
  /  /  / /  /  / / /   /  / / /  /  / / /

  E +E  E E +E  E E E   E  E E E +E  E E E
|---------0-(0)-------|--------------------|
|---------------0-----|------1-0-(0)-1-----|
|-----------------1---|----2-----------2---|
|-------------------0-|------------------0-|
|-------2-------------|-0------------------|
|-0-(0)---------------|--------------------|


  F                     Fm
  E +E  E E +E  E E E   E +E  E E +E  E E E
  |  |  | |  |  | | |   |  |  | |  |  | | |
  /  /  / /  /  / / /   /  /  / /  /  / / /

  E +E  E E +E  E E E   E +E  E E +E  E E E
|---------1-(1)-------|---------1-(1)-------|
|---------------1-----|---------------1-----|
|-----------------2---|-----------------1---|
|-------------------3-|-------------------3-|
|-------3-------------|-------3-------------|
|-1-(1)---------------|-1-(1)---------------|


  G                     G7
  E +E  E E +E  E E E   E +E E E +E  E E E
  |  |  | |  |  | | |   |  | | |  |  | | |
  /  /  / /  /  / / /   /  / / /  /  / / /

  E +E  E E +E  E E E   E  E E E +E  E E E
|---------3-(3)-------|--------3-(3)-------|
|---------------3-----|----3---------3-----|
|-------0---------0---|-0----0---------0---|
|-------------------0-|------------------0-|
|---------------------|--------------------|
|-3-(3)---------------|--------------------|


  Am                    C
  E +E  E E +E  E E E   E +E  E E +E  E E E
  |  |  | |  |  | | |   |  |  | |  |  | | |
  /  /  / /  /  / / /   /  /  / /  /  / / /

  E +E  E E +E  E E E   E +E  E E +E  E E E
|---------0-(0)-------|---------0-(0)-------|
|---------------1-----|---------------1-----|
|-----------------2---|-----------------0---|
|-------2-----------2-|-------2-----------2-|
|-0-(0)---------------|-3-(3)---------------|
|---------------------|---------------------|


  E7                    Am     Asus2
  E +E  E E +E  E E E   E +E E E +E  E E E
  |  |  | |  |  | | |   |  | | |  |  | | |
  /  /  / /  /  / / /   /  / / /  /  / / /

  E +E  E E +E  E E E   E  E E E +E  E E E
|---------0-(0)-------|--------------------|
|---------------0-----|------1-0-(0)-1-----|
|-----------------1---|----2-----------2---|
|-------------------0-|------------------0-|
|-------2-------------|-0------------------|
|-0-(0)---------------|--------------------|


  F
  E +E E E +E  E E E   +E  E E E +E  E  E  E
  |  | | |  |  | | |    |  | | |  |  |  |  |
  /  / / /  /  / / /    /  / / /  /  /  /  /

  E  E E E +E  E E E   +E  E E E +E  E +E  E
|--------1-(1)-----1-|-(1)-----1-(1)---------|
|----1---------1-----|-----1---------1-(1)---|
|------2---------2---|-------2-------------2-|
|-3------------------|-----------------------|
|--------------------|-----------------------|
|--------------------|-----------------------|


  Fm
  E +E E E +E  E E E   +E  E E E +E  E  E  E
  |  | | |  |  | | |    |  | | |  |  |  |  |
  /  / / /  /  / / /    /  / / /  /  /  /  /

  E  E E E +E  E E E   +E  E E E +E  E +E  E
|--------1-(1)-----1-|-(1)-----1-(1)---------|
|----1---------1-----|-----1---------1-(1)---|
|------1---------1---|-------1-------------1-|
|-3------------------|-----------------------|
|--------------------|-----------------------|
|--------------------|-----------------------|


  C        C/B        Am     Asus2
  E +E E E E +E E E   E +E E E +E  E E E
  |  | | | |  | | |   |  | | |  |  | | |
  /  / / / /  / / /   /  / / /  /  / / /

  E  E E E E  E E E   E  E E E +E  E E E
|----0--------0-----|--------------------|
|------1--------1---|------1-0-(0)-1-----|
|--------0--------0-|----2-----------2---|
|-------------------|------------------0-|
|-3--------2--------|-0------------------|
|-------------------|--------------------|


                      1.
  D7                   Fmaj7
  E +E E E +E  E E E   E +E E E +E  E E E
  |  | | |  |  | | |   |  | | |  |  | | |
  /  / / /  /  / / /   /  / / /  /  / / /

  E  E E E +E  E E E   E  E E E +E  E E E
|-2------3-(3)-2-----|--------0-(0)-----0-|
|----1-----------1---|----1---------1-----|
|------2-----------2-|------0---------0---|
|--------------------|-3------------------|
|--------------------|--------------------|
|--------------------|--------------------|


  +E  E E E +E  E  E  E   E +E E E +E  E E E    W
   |  | | |  |  |  |  |   |  | | |  |  | | |
   /  / / /  /  /  /  /   /  / / /  /  / / /

  +E  E E E +E  E +E  E   E  E E E +E  E E E   +H     H
|-(0)-----0-(0)---------|--------0-(0)-----0-|-(0)---------|
|-----1---------1-(1)---|----1---------1---1-|-(1)---------|
|-------0-------------0-|------0---------0-0-|-(0)---------|
|-----------------------|-3----------------3-|-(3)---------|
|-----------------------|--------------------|-------------|
|-----------------------|--------------------|-------------|


 Interlude
  C                       Fmaj7
  E +E  E E +E  E  E  E   E +E E E +E  E E E
  |  |  | |  |  |  |  |   |  | | |  |  | | |
  /  /  / /  /  /  /  /   /  / / /  /  / / /

  E +E  E E +E  E +E  E   E  E E E +E  E E E
|---------0-(0)---------|--------0-(0)-------|
|-------1-------1-(1)---|----1---------1-----|
|---------------------0-|------0---------0---|
|-----------------------|-3----------------3-|
|-3-(3)-----------------|--------------------|
|-----------------------|--------------------|


  C                       Fmaj7
  E +E  E E +E  E  E  E   E +E E E +E  E E E
  |  |  | |  |  |  |  |   |  | | |  |  | | |
  /  /  / /  /  /  /  /   /  / / /  /  / / /

  E +E  E E +E  E +E  E   E  E E E +E  E E E
|---------0-(0)---------|--------0-(0)--------||
|-------1-------1-(1)---|----1---------1-----o||
|---------------------0-|------0---------0----||
|-----------------------|-3----------------3--||
|-3-(3)-----------------|--------------------o||
|-----------------------|---------------------||


  2.
  Fmaj7
  E +E E E +E  E E E   +E  E E E +E  E  E  E
  |  | | |  |  | | |    |  | | |  |  |  |  |
  /  / / /  /  / / /    /  / / /  /  /  /  /

  E  E E E +E  E E E   +E  E E E +E  E +E  E
|--------0-(0)-----0-|-(0)-----0-(0)---------|
|----1---------1-----|-----1---------1-(1)---|
|------0---------0---|-------0-------------0-|
|-3------------------|-----------------------|
|--------------------|-----------------------|
|--------------------|-----------------------|


  E +E E E +E  E E E   +E  E E E +E  E  E  E
  |  | | |  |  | | |    |  | | |  |  |  |  |
  /  / / /  /  / / /    /  / / /  /  /  /  /

  E  E E E +E  E E E   +E  E E E +E  E +E  E
|--------0-(0)-----0-|-(0)-----0-(0)---------|
|----1---------1-----|-----1---------1-(1)---|
|------0---------0---|-------0-------------0-|
|-3------------------|-----------------------|
|--------------------|-----------------------|
|--------------------|-----------------------|


  E +E E E +E  E E E   +E  E E E +E  E  E  E   E +E E E +E  E E E   q  q  H
  |  | | |  |  | | |    |  | | |  |  |  |  |   |  | | |  |  | | |   |  |
  /  / / /  /  / / /    /  / / /  /  /  /  /   /  / / /  /  / / /   /  /

  E  E E E +E  E E E   +E  E E E +E  E +E  E   E  E E E +E  E E E   W
|--------0-(0)-----0-|-(0)-----0-(0)---------|--------0-(0)-----0-|------------|
|----1---------1-----|-----1---------1-(1)---|----1---------1-----|------------|
|------0---------0---|-------0-------------0-|------0---------0---|------------|
|-3------------------|-----------------------|-3------------------|------------|
|--------------------|-----------------------|--------------------|------------|
|--------------------|-----------------------|--------------------|------------|


   Outro
    C                       Fmaj7
    E +E  E E +E  E  E  E   E +E E E +E  E E E
    |  |  | |  |  |  |  |   |  | | |  |  | | |
    /  /  / /  /  /  /  /   /  / / /  /  / / /

    E +E  E E +E  E +E  E   E  E E E +E  E E E
||----------0-(0)---------|--------0-(0)-------|
||o-------1-------1-(1)---|----1---------1-----|
||----------------------0-|------0---------0---|
||------------------------|-3----------------3-|
||o-3-(3)-----------------|--------------------|
||------------------------|--------------------|


  C                       Fmaj7
  E +E  E E +E  E  E  E   E +E E E +E  E E E
  |  |  | |  |  |  |  |   |  | | |  |  | | |
  /  /  / /  /  /  /  /   /  / / /  /  / / /

  E +E  E E +E  E +E  E   E  E E E +E  E E E   3x
|---------0-(0)---------|--------0-(0)---------||
|-------1-------1-(1)---|----1---------1------o||
|---------------------0-|------0---------0-----||
|-----------------------|-3----------------3---||
|-3-(3)-----------------|---------------------o||
|-----------------------|----------------------||


Duration Legend
---------------
W - whole; H - half; Q - quarter; E - 8th; S - 16th; T - 32nd; X - 64th; a - acciaccatura
+ - note tied to previous; . - note dotted; .. - note double dotted
Uncapitalized letters represent notes that are staccato (1/2 duration)
Irregular groupings are notated above the duration line
Duration letters will always appear directly above the note/fret number it represents the
duration for.  Duration letters with no fret number below them represent rests.  Multi-
bar rests are notated in the form Wxn, where n is the number of bars to rest for.  Low
melody durations appear below the staff

Tablature Legend
----------------
 h   - hammer-on
 p   - pull-off
 b   - bend
 pb  - pre-bend
 r   - bend release (if no number after the r, then release immediately)
 /\  - slide into or out of (from/to "nowhere")
 s   - legato slide
 S   - shift slide
  - natural harmonic
[n]  - artificial harmonic
n(n) - tapped harmonic
 ~   - vibrato
 tr  - trill
 T   - tap
 TP  - trem. picking
 PM  - palm muting
\n/  - tremolo bar dip; n = amount to dip
 \n  - tremolo bar down
 n/  - tremolo bar up
/n\  - tremolo bar inverted dip
 =   - hold bend; also acts as connecting device for hammers/pulls
 <>  - volume swell (louder/softer)
 x   - on rhythm slash represents muted slash
 o   - on rhythm slash represents single note slash

Misc Legend
-----------
 |  - bar
||  - double bar
||o - repeat start
o|| - repeat end
*|  - double bar (ending)
 :  - bar (freetime)
 $  - Segno
 &  - Coda
Tempo markers -  = BPM(8/16=s8/s16), where s8 = swing 8ths, s16 = swing 16ths
comments
We did not receive enough feedback on this tab! Please rate:
print report bad tab
1 2 3 4 5
I want to post or [tab]
guest
You may want to rate the tab now too:
select rating
Please do not post tabs as comments. Select "correction" instead!