Oops, an error
Loading. Please wait.

Hey Now tab

version 2
version 2

Whole song

Interactive

by Oasis
27,601 views 42 this week
4 commentsread comments
1 2 3 4 5
x 9
add to favorites
×
Save as Personal and add changes to this tab that will be seen only by you. Learn more ›
×
You can save this tab as Personal to edit and correct it or add notes. All changes will be seen only by you. Learn more »
launch autoscroll
font size
0
reset
how to read this tab
guitar tuner
edit
Autoscroll
slow
fast
+/-
esc
set tempo
stop
Author
Difficulty
[Intro]
G    Em7  G     Em7  G    Em7  G    Em7   D

[Verse 1]
            G
I hitched a ride with my soul by the side of the road
Em7
Just as the sky turned black
D        G
I took a walk with my fame down memory lane
Em7                       D
Never to find my way back

[Chorus]
     Bb6              A7sus4          Cadd9               G
       I thought that I heard someone ...
e|-----------------------------------------------------------------------|
B|-----------------------------------------------------------------------|
G|------0-------0---------0--------0------0-------0-----------0-------0--|
D|----3-------3---------2--------2------2-------2-----------0-------0----|
A|--1-------1---------0--------0------3-------3--------------------------|
E|--------------------------------------------------------3-------3------|

       Bb6           A7sus4              G
     away now        ...
e|-----------------------------------------3-3-3-3-3-3----|
B|-----------------------------------------3-3-3-3-3-3----|
G|---------0------0------0------0--------0-0-0-0-0-0-0----|
D|-------3------3------2------2----------0-0-0-0-0-0-0----|
A|-----1------1------0------0------------x-x-x-x-x-x-x----|
E|---------------------------------------3-3-3-3-3-3-3----|

Em7       G                  Em7           G
Feel no shame              cos ...
Em7       G        Em7     D
Feel no shame...

[Solo]
e|--------------------------------------------------------------------|
B|---------------------------------------------------------3-5---3-5--|
G|-----0-2-2b4-2-0-2-0-------------------0-2-2s4-2-0-2-0--------------|
D|-0-2-----------------2-0-0-2-------0-2------------------------------|
A|--------------------------------------------------------------------|
E|--------------------------------------------------------------------|

(The following section of the solo is features 2 guitars at once,
one playing the top part, the other playing the bottom part)

     Bb6         A7sus4      Cadd9       G           Bb6         A7sus4   G
e|--------------------------------------------------------------------------|
B|------------------------------------------------------------------------0-|
G|--2b3r2-0-0-0-2b3r2-0-0-0-2b3r2-0-0-0-2b3r2-0-0-0-2b3r2-0-0-0-2b3r2-0-0-0-|
D|------------------------------------------------------------------------0-|
A|--------------------------------------------------------------------------|
E|--------------------------------------------------------------------------|

   Bb6                A7sus4            Cadd9
e|----------------------------------------------------------|
B|----------------------------------------------------------|
G|--14b15r14-12-12-12--14b15r14-12-12-12-14b15r14-12-12-12--|
D|----------------------------------------------------------|
A|----------------------------------------------------------|
E|----------------------------------------------------------|


************************************

| x  Dead note
| b  Bend
| r  Release  

************************************

            
            
Suggest correction
Creating personal tab
Creating personal tab
You can edit any tab online and save it as your Personal.

You can edit, replace or remove any tab part or add personal notes – all changes will be seen only by you.

Personal tabs can be accessed anytime from any device, even offline.
Learn more »
comments
print report bad tab
4 comments total. Showing first comments.
+2 reply
beano93 401 May 25, 2010 08:27 AM

Good tab, but you should consider writing the full thing out

0 reply
earlf9 10 Jun 15, 2010 04:04 AM

What effects do you use for the solo?

0 reply
Timo2a 1,311 Jun 04, 2012 03:08 PM, edited on February 20 2014, 10:23 am

Just a lot of reverb hehe

guest
You may want to rate the tab now too:
select rating
Wanna post a correction for this tab? Suggest correction