Oops, an error
Loading. Please wait.

Just Getting Older chords

version 1
version 1

Whole song

by Oasis
4,758 views 6 this week
4 commentsread comments
1 2 3 4 5
x 3
add to favorites
×
Save as Personal and add changes to this tab that will be seen only by you. Learn more ›
×
You can save this tab as Personal to edit and correct it or add notes. All changes will be seen only by you. Learn more »
launch autoscroll
font size
0
reset
transpose
0
reset
simplify chords
display chords
guitar tuner
edit
Autoscroll
slow
fast
+/-
esc
set tempo
stop
Author
Strumming
There is no strumming pattern for this song yet. and get +5 IQ
Just Getting Older" B-Side from "The Hindu Times" CD Single by Oasis.
----------------

The whole song pretty much follows this chord progression.  I am not sure this 100% 
correct but it's something I use...

A A7 Dsus2 Dm A Em Dsus2 A

That's basically it.  The synth bit that loops in the background can be fingerpicked 
of the A chord.  Something like this:

e-----0-
B-2----2
G---2---

Chord definition in EADGBe order:
A     (0 0 2 2 2 0)
A7    (0 0 2 0 2 0)
Dsus2 (x 0 0 2 3 0)
Dm    (x x 0 2 3 1)
Em    (0 2 2 0 0 x)
Suggest correction
Creating personal tab
Creating personal tab
You can edit any tab online and save it as your Personal.

You can edit, replace or remove any tab part or add personal notes – all changes will be seen only by you.

Personal tabs can be accessed anytime from any device, even offline.
Learn more »
Give kudos to tab author, rate the tab!
1 2 3 4 5
comments
print report bad tab
4 comments total. Showing first comments.
0 reply
Maverick_X1 10 May 22, 2002 08:00 PM

try E instead of Em & D instead of Dsus2. Keep it simple

0 reply
zomenn2000 0 Jul 01, 2002 08:00 PM

Just Getting Older
written by:
Noel Gallagher
Track 2 on the Single "Hindu Times"

Intro
A A7 D Dm
A E D A

A A7
(1)it's nine o'clock, i'm getting tired i'm
(2)i'm staying in, i can't be bothered
(3)i'm halfway up to the bottom

D
sick of all my records and the
making conversation with the
of another bottle of my

Dm
clothes i bought today
friends that i don't know
next best favourite friend

A E D A (3x/2 outro)
am i cracking up, or just getting older?

solo
A Amaj7 A7 F#m
----------------|----------------|----------------|----------------|
----------------|----------------|----------------|----------------|
---2s4-4-2~~~---|-----2s4--4s7-6-|-0~~~-----6s7s6s|-2~~~-----------|
----------------|----------------|----------------|----------------|
----------------|----------------|----------------|----------------|
----------------|----------------|----------------|----------------|

F E G/D D A
----------------|----------------|----------------|-0--------------|
----------------|--------------0-|-3------0-3-0-3-|-2--------------|
-5s4-4--2-------|--------------0-|-2------0-2-0-2-|-2--------------|
------------3---|-----2--------0-|-0--------0---0-|-2--------------|
----------------|-----2----------|----------------|-0--------------|
----------------|-0---0----------|----------------|----------------|

D

0 reply
zomenn2000 0 Jul 01, 2002 08:00 PM


Just Getting Older
written by:
Noel Gallagher
Track 2 on the Single "Hindu Times"

Intro
A A7 D Dm
A E D A

A A7
(1)it's nine o'clock, i'm getting tired i'm
(2)i'm staying in, i can't be bothered
(3)i'm halfway up to the bottom

D
sick of all my records and the
making conversation with the
of another bottle of my

Dm
clothes i bought today
friends that i don't know
next best favourite friend

A E D A (3x/2 outro)
am i cracking up, or just getting older?

solo
A Amaj7 A7 F#m
----------------|----------------|----------------|----------------|
----------------|----------------|----------------|----------------|
---2s4-4-2~~~---|-----2s4--4s7-6-|-0~~~-----6s7s6s|-2~~~-----------|
----------------|----------------|----------------|----------------|
----------------|----------------|----------------|----------------|
----------------|----------------|----------------|----------------|

F E G/D D A
----------------|----------------|----------------|-0--------------|
----------------|--------------0-|-3------0-3-0-3-|-2--------------|
-5s4-4--2-------|--------------0-|-2------0-2-0-2-|-2--------------|
------------3---|-----2--------0-|-0--------0---0-|-2--------------|
----------------|-----2----------|----------------|-0--------------|
----------------|-0---0----------|----------------|----------------|

D

guest
You may want to rate the tab now too:
select rating
Wanna post a correction for this tab? Suggest correction