Oops, an error
Loading. Please wait.
We have an official Live Forever tab made by UG professional guitarists. Check out the tab »
×
by Oasis
35,301 views 45 this week
2 commentsread comments
1 2 3 4 5
x 6
add to favorites
×
Save as Personal and add changes to this tab that will be seen only by you. Learn more ›
×
You can save this tab as Personal to edit and correct it or add notes. All changes will be seen only by you. Learn more »
launch autoscroll
font size
0
reset
how to read this tab
guitar tuner
backing track
0:00
0:00
edit
Autoscroll
slow
fast
+/-
esc
set tempo
stop
Author
Standard Tuning

[Verse]
G              D
Maybe, I don't really wanna know
         Am7
How your garden grows
C            D
I just wanna fly
G               D
Lately, did you ever feel the pain
       Am7
in the morning rain
      C                D
as it soaks you to the bone

[Chorus]
Em7                  D
  Maybe I just wanna fly
                           Am7
Wanna live I don't wanna die
                   C
Maybe I just wanna breathe
      D               Em7
Maybe I just don't believe
                         D
Maybe you're the same as me
                            Am7
We see things they'll never see
                            F
You and I are gonna live forever

[Verse]
G              D
Maybe, I don't really wanna know
         Am7
How your garden grows
C            D
I just wanna fly
G               D
Lately, did you ever feel the pain
       Am7
in the morning rain
      C                D
as it soaks you to the bone

[Verse 2 & 3 Riff]
e|-----------------------------------------0--3---|
B|-12----12-13-13-12-12s7--------8-7-------1--2---|
G|-12----12-12-12-12-12s7------------7s0---0--3---|
D|-12h14-12-12-12-12-12s7--7h9-7-----------2--0---| (x2)
A|-----------------------------------------3------|
E|------------------------------------------------|

[Chorus]
Em7                  D
Well maybe I will never be
                           Am7
All the things that I wanna be
                          C
But now is not the time to cry
      D               Em7
Now's the time to find out why
                         D
I think you're the same as me
                            Am7
We see things they'll never see
                            F
You and I are gonna live forever

[Solo] 
(Played over verse)
e|----------------------------------------------------------------------------|
B|----------------------------------------------------------------------------|
G|--------12--14b16-14-12----12h14---14b16r14-12----12h14------12----12-------|
D|--12h14-----------------14---------------------14-------14---12h14-12-12----|
A|----------------------------------------------------------------------12h14-|
E|----------------------------------------------------------------------------|

e|----------------------------------------------------------------------------|
B|----------------------------------------------------------------------------|
G|-------------------12h14--14b16r14-12----12h14-----12----12-----------------|
D|--12-----s12-12h14--------------------14-------14--12h14-12-12----12--------|
A|--12--------------------------------------------------------12h14-12--------|
E|----------------------------------------------------------------------------|

e|-----------------------------------------------------------------------------|
B|--12s17^^^^^^-17s15----15----------------------------------------------------|
G|--------------------16----16-14-16-14s12-14-12----12-14-12-14b16-14-12----12-|
D|-----------------------------------------------14----------------------14----|
A|-----------------------------------------------------------------------------|
E|-----------------------------------------------------------------------------|

e|----------------------------------------------------------------------------|
B|---------------------------------------------------15-17^^^^^^(*)-17s15--15-|
G|-----------------12-14b16-14b16-14p12----12--14s16---------------------16---|
D|--14-------12h14----------------------14------------------------------------|
A|-----12h14------------------------------------------------------------------|
E|----------------------------------------------------------------------------|

e|---------------------------------------------------------------------------|
B|---------------------------------------------------------------------------|
G|-16-14-16-14s12-14-12----12-14-12-14b16-14-12h14-12----------------12------|
D|----------------------14----------------------------14-------12h14---------|
A|-------------------------------------------------------12h14---------------|
E|---------------------------------------------------------------------------|

e|-------------------------------------------------------------------------|
B|-------------------------------------------------------------------------|
G|--------------12--12---------------12-14-12-14b16-14b16-14-12----12------|
D|--------12h14---------------12h14-----------------------------14---------|
A|--12h14---------------12h14----------------------------------------------|
E|-------------------------------------------------------------------------|

[Verse]
G              D
Maybe, I don't really wanna know
         Am7
How your garden grows
C            D
I just wanna fly
G               D
Lately, did you ever feel the pain
       Am7
in the morning rain
      C                D
as it soaks you to the bone

[Chorus]
Em7                  D
  Maybe I just wanna fly
                           Am7
Wanna live I don't wanna die
                   C
Maybe I just wanna breathe
      D               Em7
Maybe I just don't believe
                         D
Maybe you're the same as me
                            Am7
We see things they'll never see
                            F
You and I are gonna live forever
Am7                   F
   Were gonna live forever x6

[Outro] 
(Played over Am7 & F - Part 1)
e|------------------|----------------|
B|-5----------------|----------------|
G|-7b9r7--5------5--|----------------|
D|----------7--7----|----------------|
A|------------------|---3---2---0----|
E|------------------|----------------|

e|----------------------|--------------------|
B|----------------------|--------------------|
G|--------5-5-----------|-5------------------|
D|--5h7-5-----7-5h7-5h7-|---7----------------|
A|----------------------|--------3---2---0---|
E|----------------------|--------------------|

e|------------------------------|----------------------|
B|--5---------------------------|----------------------|
G|--7b9-7p5-7p5-7b9-7-5-7-5-7-5-|----------------------|
D|------------------------------|-7--------------------|
A|------------------------------|----------3---2---0---|
E|------------------------------|----------------------|

e|------------------------------|----------------------|
B|--5---------------------------|----------------------|
G|--7b9-7p5-7p5-7b9-7-5-7-5-7-5-|----------------------|
D|------------------------------|-7--------------------|
A|------------------------------|----------3---2---0---|
E|------------------------------|----------------------|

[Outro] 
(Part 2) (Studio Version)
e|--------0-------------|----------0--------------|
B|---0--0---------------|---5-5--5-0--------------|
G|---5------------------|---5-5--5-0--------------|
D|----------5h7-7-5h7-7-|-------------7-7-5h7-5h7-|
A|----------------------|-------------------------|
E|----------------------|-------------------------|

e|----------0--------------|----------0---------------|
B|---5-5--5-0--------------|---5-5--5-0---------------|
G|---5-5--5-0--------------|---5-5--5-0---------------|
D|-------------7-7-5h7-5h7-|-------------7-7-5h7-5h7--|
A|-------------------------|--------------------------|
E|-------------------------|--------------------------|

e|------------------------------|
B|--------------5---5-----------|
G|---------5--5-----------------|
D|-----5h7------------7-5h7-5h7-|
A|-5h7--------------------------|
E|------------------------------|

e|--------0--------------|------------0--------------|
B|-5-5--5-0--------------|-----5-5--5-0--------------|
G|-5-5--5-0--------------|-----5-5--5-0--------------|
D|-----------7-7-5h7-5h7-|-7s2-----------7-7-5h7-5h7-|
A|-----------------------|---------------------------|
E|-----------------------|---------------------------|

e|----------0--------------|---------|
B|---5-5--5-0--------------|---------|
G|---5-5--5-0--------------|---------|
D|-7-----------7-7-5h7-5h7-|-7^^^----|
A|-------------------------|---------|
E|-------------------------|---------|

[Outro] 
(Part 2) (Familiar To Millions Version)
e|---------------|-----------------|
B|---------------|-----------------|
G|-4b6-2-4b6---2-|-2p0h2--5-5-2^^--|
D|---------------|-----------------|
A|---------------|-----------------|
E|---------------|-----------------|

e|---------------|-----------------|
B|---------------|----------3------|
G|-4b6-2-4b6---2-|-2p0h2--5---2^^--|
D|---------------|-----------------|
A|---------------|-----------------|
E|---------------|-----------------|

e|---------------|-----------------|
B|---------------|-----------------|
G|-4b6-2-4b6---2-|-2p0h2--5-5-2^^--|
D|---------------|-----------------|
A|---------------|-----------------|
E|---------------|-----------------|

e|---------------|------------------|------------|
B|---------------|------------------|------------|
G|-4b6-2-4b6---2-|-2-0--------------|------------|
D|---------------|-----0------------|------------|
A|---------------|-------3-3s5--5b7-|-7r5-3-0^^^-|
E|---------------|------------------|------------|



************************************

| h  Hammer-on
| r  Release
| b  Bend
| p  Pull-off

************************************

            
            
Suggest correction
Creating personal tab
Creating personal tab
You can edit any tab online and save it as your Personal.

You can edit, replace or remove any tab part or add personal notes – all changes will be seen only by you.

Personal tabs can be accessed anytime from any device, even offline.
Learn more »
comments
print report bad tab
2 comments total.
0 reply
Johnny_H 50 Aug 08, 2011 01:23 AM

Solo is missing a few details but at last someone has tabbed the right basic notes. This is the best to start from.

0 reply
PacMan96 10 Mar 05, 2015 05:56 AM

Best tabs 'round.

guest
You may want to rate the tab now too:
select rating
Wanna post a correction for this tab? Suggest correction