Oops, an error
Loading. Please wait.

Master Plan bass

version 1
version 1

Whole song

by Oasis
7,965 views 6 this week
8 commentsread comments
1 2 3 4 5
x 3
add to favorites
×
Save as Personal and add changes to this tab that will be seen only by you. Learn more ›
×
You can save this tab as Personal to edit and correct it or add notes. All changes will be seen only by you. Learn more »
launch autoscroll
font size
0
reset
guitar tuner
edit
Autoscroll
slow
fast
+/-
esc
set tempo
stop
The Masterplan by Oasis, Bass Tab
Submitted By Simon Wright

Intro/Outro
G----------------------------------------------------
D-----------------------------------------------------
A------------------------------5---------5------7--
E----555444333222111------------------------x2
Verses
G-------------------------------------------------
D--------------------------------------------------
A------------7-5-----3 3 3 3-----7-7-7-7----
E---5555 5 551--------------------------------
Bridge
G----------------------------------------------
D------------------------------------------------
A-33---------------------3-3--------3 3------
E----335-53311333333-5-3313 3
Chorus
G------------------------------------------
D-------------------------------------------
A--------------------------7----------------
E--5----5555--1-3-5----5--------------

The rhythm is eay to figure out
as the bass is quite predominant
in the song
Any questions/corrections
email me at
simonewright@aol.com
Suggest correction
Creating personal tab
Creating personal tab
You can edit any tab online and save it as your Personal.

You can edit, replace or remove any tab part or add personal notes – all changes will be seen only by you.

Personal tabs can be accessed anytime from any device, even offline.
Learn more »
Give kudos to tab author, rate the tab!
1 2 3 4 5
comments
print report bad tab
8 comments total. Showing first comments.
0 reply
luggz 0 Apr 28, 2002 08:00 PM

This is a wicked song i hope they keep it up Oasis RULE!!!I cant wait 2 c them at WITNESS this summer

0 reply
Lil_C 30 Feb 09, 2007 03:50 AM

its not great
the intro is missing the A between D and E

0 reply
chappo777 10 Jul 27, 2009 10:32 AM

G-----------------------------------------------------
D----7--76--65--54--40--------------------------------
A----------------------------5--55-7------------------
E-----------------------------------------------------

Try that for an intro and Outro, it's what i use and it sounds great with the record, but it's really up too you what you use.

guest
Wanna post a correction for this tab? Suggest correction