Oops, an error
Loading. Please wait.

Morning Glory tab

version 4
version 4
by Oasis
1,643 views 6 this week
no commentswrite comment
1 2 3 4 5
x 3
add to favorites
×
Save as Personal and add changes to this tab that will be seen only by you. Learn more ›
×
You can save this tab as Personal to edit and correct it or add notes. All changes will be seen only by you. Learn more »
launch autoscroll
font size
0
reset
how to read this tab
guitar tuner
backing track
0:00
0:00
edit
Autoscroll
slow
fast
+/-
esc
set tempo
stop
Author
[Intro riff]
(both of these are played in harmony, one an octave higher):
e|--------------------------------|
B|-3-3-3-3b5----------------------|
G|--------------------------------|(x3)
D|--------------------------------|
A|--------------------------------|
E|--------------------------------|

                                Em
e|---------------------------------|
B|-15-15-15-15b17-(x8)--12---------|
G|----------------------14b16~~~---|
D|-------------------------------2-|
A|-------------------------------2-|
E|-------------------------------0-|

(This phrases plays in tandem with the Em and Dsus2 chords of pre-verse and during the chorus:)

  Em         Dsus2       Em         Dsus2       Em         Dsus2       Em...
e|----------------------------------------------------------------------|
B|---------------7h8p7------------------7h8p7------------------7h8p7----|
G|-9~9~9~99-7-79~-----9-7-9~9~9~99-7-79~-----9-7-9~9~9~99-7-79~-----9-7-|(repeat)
D|----------------------------------------------------------------------|
A|----------------------------------------------------------------------|
E|----------------------------------------------------------------------|

[Verse chords] (Noel):

  E5EmDsus2D5  E5...                    A5A7s4Cadd9 E5...
e|---0-000---00--0-000---00--0-000---00--0-000---00--|
B|---0-003-3-33--0-003-3-33--0-003-3-33--3-333---33--|
G|---0-002-2-22--0-002-2-22--0-002-2-222-2-220-0-00--|
D|-2-2-220-0-002-2-220-0-002-2-220-0-002-2-222-2-222-|
A|-2-2-22------2-2-22------2-2-22------0-0-003-3-332-|
E|-0-0-00------0-0-00------0-0-00------------------0-|

[Verse riff] 
(you can also play this pre-verse)
  Em          Dsus2    Em         Dsus2    Em        Dsus2  A7s4          Cadd9
e|----------------------------------------------------------------0-----0-------0-------|
B|--------------3333333-------------3333333------------3333333------3-----3-------3-----|
G|--------------2222222-------------2222222------------2222222--------0-----0-------0-0-|
D|---2-------0--0000000--2-------0--0000000--2-------0-00000002-------------------------|
A|---2---0-2-------------2---0-2-------------2---0-2----------0-0-------------3---------|
E|-0---3---------------0---3---------------0---3----------------------------------------|

[Verse chords] 
(Bonehead)
  E5    D5    E5...                    A5   C5    E5...
e|---------------------------------------------------|
B|---------------------------------------------------|
G|-9-9-997-7-779-9-997-7-779-9-997-7-77------5-5-559-|
D|-9-9-997-7-779-9-997-7-779-9-997-7-777-7-775-5-559-|
A|-7-7-775-5-557-7-775-5-557-7-775-5-557-7-773-3-337-|
E|-------------------------------------5-5-55--------|

[Bridge chords] 
(Noel)
  D5Ds2 Cadd9                                         Dsus2           B
e|---0-000---000--0-000---000--0-000---000--0-000---000--0-00--0-00-002-2-222-2-222-|
B|-3-3-333---3333-3-333---3333-3-333---3333-3-333---3333-3-333-3-33-334-4-444-4-444-|
G|-2-2-220-0-0002-2-220-0-0002-2-220-0-0002-2-220-0-0002-2-222-2-22-224-4-444-4-444-|
D|-0-0-002-2-2220-0-002-2-2220-0-002-2-2220-0-002-2-2220-0-000-0-00-004-4-444-4-444-|
A|-------3-3-333------3-3-333------3-3-333------3-3-333---------------2-2-222-2-222-|
E|----------------------------------------------------------------------------------|

[Bridge tab]
 Dsus2         Cadd9                 Dsus2                         B
e|-----0-------------0-----------|  |-----------------------------------------------|
B|-------3-----3-------3-----3---|  |-----3-------3------3---3-------44444444444444-|
G|---2-------2-----0-------0---0-|x3|---2---2---2------2---2---2-----44444444444444-|
D|-0-------0---------------------|  |-0-------0-----0------------0---44444444444444-|
A|---------------3-------3-------|  |------------------------------2---222222222222-|
E|-------------------------------|  |-----------------------------------------------|

[Bridge chords] 
(Bonehead)
  D5     C5                                            D5            B5
e|----------------------------------------------------------------------------------|
B|----------------------------------------------------------------------------------|
G|-7-7-775-5-5557-7-775-5-5557-7-775-5-5557-7-775-5-5557-7-777-7-77-774-4-444-4-444-|
D|-7-7-775-5-5557-7-775-5-5557-7-775-5-5557-7-775-5-5557-7-777-7-77-774-4-444-4-444-|
A|-5-5-553-3-3335-5-553-3-3335-5-553-3-3335-5-553-3-3335-5-555-5-55-552-2-222-2-222-|
E|----------------------------------------------------------------------------------|

[Chorus chords] 
(Noel)
  E5Em Ds2D5  A7s4  Cadd9     Em(etc...)
e|---0-000---000-0-000---00-00----------|
B|---0-003-3-333-3-333---33-33----------|
G|---0-002-2-222-2-220-0-00-00--(etc...)|
D|-2-2-220-0-002-2-222-2-22-222---------|
A|-2-2-22------0-0-003-3-33-332---------|
E|-0-0-00-------------------000---------|

[Chorus riff]
  Em          Dsus2   A7s4 Cadd9    Em        Dsus2    A7s4 Cadd9     Em         (repeats...)
e|----------------------0-000-0000000---------------------0-000-0000000-----------------------|
B|-------------3333333--3-333-3333333------------3333333--3-333-3333333-----------------------|
G|-------------2222222--2-220-0000000------------2222222--2-220-0000000-----------------------|
D|---2-------0-0000000--2-222----------2-------0-0000000--2-222----------2-------(repeats...)-|
A|---2---0-2----------0-----3----------2---0-2----------0-----3----------2---0-2--------------|
E|-0---3-----------------------------0---3-----------------------------0---3------------------|

[Chorus chords] 
(Bonehead)
  E5     D5    A5   C5       E5 (etc...)
e|--------------------------------------|
B|--------------------------------------|
G|-9-9-997-7-77------5-5-55-559-(etc...)|
D|-9-9-997-7-777-7-775-5-55-559---------|
A|-7-7-775-5-557-7-773-3-33-337---------|
E|-------------5-5-55-------------------|

[Solo]
(After the first chorus repeat intro 4 times):
e|------------------------------------------------------12-------------------------------------|
B|-15-15-15-12h13p12---------------------------------------------------------------------------|
G|-------------------14--12--14-12~---------12-14-12-14b16r-14-12-14-12-14-12~---------12----12|
D|---------------------------------14-12-14-----------------------------------12-12-14----14---|
A|---------------------------------------------------------------------------------------------|
E|---------------------------------------------------------------------------------------------|

e|-------------------------------------------------12-----12-----12-----12--------|
B|-12h13p12-----------------------------------------------------------------------|
G|----------14-12-14-12-14-12~---------12-14-12-14b16r-14b16r-14b16r 14b16r-14\13-|
D|----------------------------12-12-14--------------------------------------------|
A|--------------------------------------------------------------------------------|
E|--------------------------------------------------------------------------------|

[Outro/solo] 
(begins at the end of the last chorus)
e|--------------------------------------------------------------------------------|
B|-12--1212--1212--12-121212-12h13p12-----12--1212--1212--12-121212-12h13p12------|
G|-14b16-14b16-14b16----------------14-12-14b16-14b16-14b16-----------------14-12-|
D|--------------------------------------------------------------------------------|
A|--------------------------------------------------------------------------------|
E|--------------------------------------------------------------------------------|

e|-----------------------------------------------------------------------12--|
B|-12--1212--1212--12-121212-12h13p12----12--1212--1212----------------------|
G|-14b16-14b16-14b16---------------14-12-14b16-14b16-14b16-14-12---14-14b16r-|
D|---------------------------------------------------------------14----------|
A|---------------------------------------------------------------------------|
E|---------------------------------------------------------------------------|

e|--------------------------------------12---------------------------------------12-|
B|-12--1212--12-121212-12h13p12----------------12--1212-121212-12-------------------|
G|-14b16-14b16-----------------14-12-14b16r-14b16-14b16--------14p12----14p12-14b16-|
D|-------------------------------------------------------------------14-------------|
A|----------------------------------------------------------------------------------|
E|----------------------------------------------------------------------------------|

e|--------------------------------------12----------------------------------------12--|
B|-12--1212--12-121212-12h13p12-------------12--1212--12-121212-12h13p12--------------|
G|-14b16-14b16-----------------14-12-14b16r-14b16-14b16------------------14-12-14b16r-|
D|------------------------------------------------------------------------------------|
A|------------------------------------------------------------------------------------|
E|------------------------------------------------------------------------------------|

e|------------------------------------------------------------------------------------------|
B|-12--1212--12-121212 12h13p12-------------------------------------------------------------|
G|-14b16-14b16-----------------14-12--------------------------------------------------------|
D|-----------------------------------14~14~1414~14~1414~12--12-14~1414~14~1414~14-12--12...-|
A|--------------------------------------------------------14------------------------14------|
E|------------------------------------------------------------------------------------------|



************************************

| b  Bend
| ~  Vibrato
| h  Hammer-on
| p  Pull-off
| x  Dead note
| r  Release
| \  Slide down

************************************

            
            
Suggest correction
Creating personal tab
Creating personal tab
You can edit any tab online and save it as your Personal.

You can edit, replace or remove any tab part or add personal notes – all changes will be seen only by you.

Personal tabs can be accessed anytime from any device, even offline.
Learn more »
Give kudos to tab author, rate the tab!
1 2 3 4 5
comments
print report bad tab
guest
You may want to rate the tab now too:
select rating
Wanna post a correction for this tab? Suggest correction