Oops, an error
Loading. Please wait.

Rock N Roll Star tab

version 3
version 3
by Oasis
41,518 views 45 this week
2 commentsread comments
1 2 3 4 5
x 8
add to favorites
×
Save as Personal and add changes to this tab that will be seen only by you. Learn more ›
×
You can save this tab as Personal to edit and correct it or add notes. All changes will be seen only by you. Learn more »
launch autoscroll
font size
0
reset
how to read this tab
guitar tuner
backing track
0:00
0:00
edit
Autoscroll
slow
fast
+/-
esc
set tempo
stop
Author
              OASIS - ROCK N ROLL STAR
                              As recorded by Oasis
                       (From the 0 Album DEFINATLY MAYBE)

Words and Music by Noel Gallagher
Transcribed by Clotho

           B                   E/B                  C#m                   A
      7 9 9 8 7 7          7 7 9 9 9 x          x 4 6 6 5 4          5 7 7 6 5 5

           E                   BII                  F#                  Aopen
      0 2 2 1 0 0          x 2 4 4 4 x          2 4 4 3 2 2          x 0 2 2 2 0

          A7                   G#m
      x 0 2 0 2 0          4 6 6 4 4 4

Gtr I (E A D G B E) - 'Untitled'
Gtr II (E A D G B E) - 'Untitled'

  Q=138
  B                           E/B       B                         E/B
 4/4
  Gtr II
  Q     H.        +H     +E   E Q       Q  H.        +H       +E  E Q
  |     |          |      |   | |       |  |          |        |  | |
  /     /          /      /   / /       /  /          /        /  / /

  Gtr I
  W               +H     +Q     Q       W            +Q   E E +E  E E E
|---------------|---------------------|------------|---------------------|
|---------------|---------------------|------------|---------------------|
|-6b8===========|=(6)----(6)r---6pb8r=|=4----------|-(4)------------4-6--|
|---------------|---------------------|------------|--------4-(4)h6------|
|---------------|---------------------|------------|---------------------|
|---------------|---------------------|------------|---------------------|


  B                           E/B       B
  Q     H.        +H     +E   E Q       Q  H.        +W
  |     |          |      |   | |       |  |          |
  /     /          /      /   / /       /  /          /

                                                      ~~~
  W               +H     +Q     Q       W             W
|---------------|---------------------|------------|--------||
|---------------|---------------------|------------|--------||
|-6b8===========|=(6)----(6)r---6pb8r=|=4----------|--------||
|---------------|---------------------|------------|--x\----||
|---------------|---------------------|------------|--------||
|---------------|---------------------|------------|--------||


  B                       E/B
  Q  Q  E E E E   +E  E E E    +E E +E  S S
  |  |  | | | |    |  | | |     | |  |  | |
  /  /  / / / /    /  / / /     / /  /  / /

  Q  Q  E E E E    Q    E Q       E +E  E
|---------------|---------------------------|
|-4--4--5-4-5-4-|-(4)-4-4-9b10----9-(9)-4-4-|
|-4--4--4-4-4-4-|-(4)-4-4-9b10----9-(9)-4-4-|
|-4--4--6-4-6-4-|-(4)-4-4---------------4-4-|
|---------------|---------------------------|
|---------------|---------------------------|
                  +E  E E Q       E +E  S S


  B                       E/B                 C#m             A
  Q  Q  E E E E   +E  E E E    +E E +E  S S   E E E E +E  E E E
  |  |  | | | |    |  | | |     | |  |  | |   | | | |  |  | | |
  /  /  / / / /    /  / / /     / /  /  / /   / / / /  /  / / /

  Q  Q  E E E E    Q    E Q       E +E  E     E E E E +E  E E E
|---------------|-----------------------0-0-|-0---0-0-(0)-0-0----|
|-4--4--5-4-5-4-|-(4)-4-4-9b10----9-(9)-0-0-|-0---0-0-(0)-0-0----|
|-4--4--4-4-4-4-|-(4)-4-4-9b10----9-(9)-----|-8h9-9-8-(8)-8-8s9--|
|-4--4--6-4-6-4-|-(4)-4-4-------------------|--------------------|
|---------------|---------------------------|--------------------|
|---------------|---------------------------|--------------------|
                  +E  E E Q       E +E  S S   Q   E E +E  E Q


                      B                       E/B
  E E +E E E E +E E   Q  Q  E E E E   +E  E E E    +E E +E  S S
  | |  | | | |  | |   |  |  | | | |    |  | | |     | |  |  | |
  / /  / / / /  / /   /  /  / / / /    /  / / /     / /  /  / /

  E Q    E E Q    E   Q  Q  E E E E    Q    E Q       E +E  E
|-0-0--0-0-0-0----0-|---------------|----------------------------||
|-0-0--0-0-0-0----0-|-4--4--5-4-5-4-|-(4)-4-4-9b10----9-(9)-4-4--||
|-9-8----8-9-8----0-|-4--4--4-4-4-4-|-(4)-4-4-9b10----9-(9)-4-4--||
|-------------------|-4--4--6-4-6-4-|-(4)-4-4---------------4-4--||
|-------------------|---------------|----------------------------||
|-------------------|---------------|----------------------------||
  E E  E E E Q    E                   +E  E E Q       E +E  S S


    B                       E/B
    Q  Q  E E E E   +E  E E E    +E E +E  S S
    |  |  | | | |    |  | | |     | |  |  | |
    /  /  / / / /    /  / / /     / /  /  / /

    Q  Q  E E E E    Q    E Q       E +E  E
||----------------|---------------------------|
||o-4--4--5-4-5-4-|-(4)-4-4-9b10----9-(9)-4-4-|
||--4--4--4-4-4-4-|-(4)-4-4-9b10----9-(9)-4-4-|
||--4--4--6-4-6-4-|-(4)-4-4---------------4-4-|
||o---------------|---------------------------|
||----------------|---------------------------|
                    +E  E E Q       E +E  S S


  B                       E/B
  Q  Q  E E E E   +E  E E E    +E E +E  S S
  |  |  | | | |    |  | | |     | |  |  | |
  /  /  / / / /    /  / / /     / /  /  / /

  Q  Q  E E E E    Q    E Q       E +E  E
|---------------|-----------------------0-0---|
|-4--4--5-4-5-4-|-(4)-4-4-9b10----9-(9)-0-0---|
|-4--4--4-4-4-4-|-(4)-4-4-9b10----9-(9)-------|
|-4--4--6-4-6-4-|-(4)-4-4---------------------|
|---------------|-----------------------------|
|---------------|-----------------------------|
                  +E  E E Q       E +E  S S


  C#m             A                       B
  E E E E +E  E E E   E E +E E E E +E E   Q  Q  E E E E
  | | | |  |  | | |   | |  | | | |  | |   |  |  | | | |
  / / / /  /  / / /   / /  / / / /  / /   /  /  / / / /

  E E E E +E  E E E   E Q    E E Q    E   Q  Q  E E E E
|-0---0-0-(0)-0-0---|-0-0--0-0-0-0----0-|---------------|
|-0---0-0-(0)-0-0---|-0-0--0-0-0-0----0-|-4--4--5-4-5-4-|
|-8h9-9-8-(8)-8-8h9-|-9-8----8-9-8----0-|-4--4--4-4-4-4-|
|-------------------|-------------------|-4--4--6-4-6-4-|
|-------------------|-------------------|---------------|
|-------------------|-------------------|---------------|
  Q   E E +E  E Q     E E  E E E Q    E


          E/B                 B                      E/B
  +E  E E E    +E E +E  S S   Q  Q  E E E E   +E E E E    +E E +E  S S
   |  | | |     | |  |  | |   |  |  | | | |    | | | |     | |  |  | |
   /  / / /     / /  /  / /   /  /  / / / /    / / / /     / /  /  / /

   Q    E Q       E +E  E     Q  Q  E E E E    Q   E Q       E +E  E
|---------------------------|---------------|--------------------------|
|-(4)-4-4-9b10----9-(9)-4-4-|-4--4--5-4-5-4-|--4-4-4-9b10----9-(9)-4-4-|
|-(4)-4-4-9b10----9-(9)-4-4-|-4--4--4-4-4-4-|--4-4-4-9b10----9-(9)-4-4-|
|-(4)-4-4---------------4-4-|-4--4--6-4-6-4-|--4-4-4---------------4-4-|
|---------------------------|---------------|--------------------------|
|---------------------------|---------------|--------------------------|
  +E  E E Q       E +E  S S                    E E E Q       E +E  S S


  B                     E/B                 C#m             A
  Q  Q  E E E E   E E E E    +E E +E  S S   E E E E +E  E E E
  |  |  | | | |   | | | |     | |  |  | |   | | | |  |  | | |
  /  /  / / / /   / / / /     / /  /  / /   / / / /  /  / / /

  Q  Q  E E E E   Q   E Q       E +E  E     E E E E +E  E E E
|---------------|---------------------0-0-|-0---0-0-(0)-0-0----|
|-4--4--5-4-5-4-|-4-4-4-9b10----9-(9)-0-0-|-0---0-0-(0)-0-0----|
|-4--4--4-4-4-4-|-4-4-4-9b10----9-(9)-----|-8h9-9-8-(8)-8-8h9--|
|-4--4--6-4-6-4-|-4-4-4-------------------|--------------------|
|---------------|-------------------------|--------------------|
|---------------|-------------------------|--------------------|
                  E E E Q       E +E  S S   Q   E E +E  E Q


                      B                       E/B
  E E +E E E E +E E   Q  Q  E E E E    E  E E E +E E +E S S
  | |  | | | |  | |   |  |  | | | |    |  | | |  | |  | | |
  / /  / / / /  / /   /  /  / / / /    /  / / /  / /  / / /

  E E  E E E E  E E   Q  Q  E E E E   +E  E E E  E E  E E
|-0-0--0-0-0-0--0-7-|-7--7--7-7---7-|-(7)-7-7-7--7-7--7-7----||
|-0-0--0-0-0-0--0-7-|-7--7--7-7---7-|-(7)-7-7-7--7-7--7-7----||
|---8--8-8-9-8--9-7-|-8--8--8-8---8-|-(8)-8-8-8--8-8--8-8----||
|-------------------|-9--9--9-9---9-|-(9)-9-9-9--9-9--9-9----||
|-------------------|-9--9--9-9---9-|-(9)-9-9-9--9-9--9-9----||
|-------------------|-7--7--7-7---7-|-(7)-7-7-7--7-7--7-7----||
  E E  E E E E  E E


  G#m           E                      BII
  E E E E E E E E   E E E E E E +E E   E E E E E E E E
  | | | | | | | |   | | | | | |  | |   | | | | | | | |
  / / / / / / / /   / / / / / /  / /   / / / / / / / /

  E E E E E E E E   E E E E E Q    E   E E E E E E E E
|-4-4-4-4-4-4---0-|-0-0-0-0-0-0----0-|-----------------|
|-4-4-4-4-4-4---0-|-0-0-0-0-0-0----0-|-4-4-5-4-5-4-x-4-|
|-4-4-4-4-4-4---1-|-1-1-1-1-1-1----1-|-4-4-4-4-4-4-x-4-|
|-6-6-6-6-6-6---2-|-2-2-2-2-2-2----2-|-4-4-4-4-4-4-x-4-|
|-6-6-6-6-6-6---2-|-2-2-2-2-2-2----2-|-2-2-2-2-2-2-x-2-|
|-4-4-4-4-4-4---0-|-0-0-0-0-0-0----0-|-----------------|


                      G#m           E
  E E E E +E  E E E   E E E E E E E E   E E E E E E +E E
  | | | |  |  | | |   | | | | | | | |   | | | | | |  | |
  / / / /  /  / / /   / / / / / / / /   / / / / / /  / /

  E E E E +E  E E E   E E E E E E E E   E E E E E Q    E
|-------------------|-4-4-4-4-4-4---0-|-0-0-0-0-0-0----0-|
|-5-4-4-5-(5)-4-5-4-|-4-4-4-4-4-4---0-|-0-0-0-0-0-0----0-|
|-4-4-4-4-(4)-4-4-4-|-4-4-4-4-4-4---1-|-2-2-2-2-0-1----1-|
|-4-4-4-4-(4)-4-4-4-|-6-6-6-6-6-6---2-|-2-2-2-2-2-2----2-|
|-2-2-2-2-(2)-2-2-2-|-6-6-6-6-6-6---2-|-2-2-2-2-2-2----2-|
|-------------------|-4-4-4-4-4-4---0-|-0-0-0-0-0-0----0-|


  BII                                   G#m           E
  E E E E E E E E   E E E E +E  E E E   E E E E E E E E
  | | | | | | | |   | | | |  |  | | |   | | | | | | | |
  / / / / / / / /   / / / /  /  / / /   / / / / / / / /

  E E E E E E E E   E E E E +E  E E E   E E E E E E E E
|-----------------|-------------------|-4-4-4-4-4-4---0-|
|-4-4-5-4-5-4-x-4-|-5-4-4-5-(5)-4-5-4-|-4-4-4-4-4-4---0-|
|-4-4-4-4-4-4-x-4-|-4-4-4-4-(4)-4-4-4-|-4-4-4-4-4-4---1-|
|-4-4-4-4-4-4-x-4-|-4-4-4-4-(4)-4-4-4-|-6-6-6-6-6-6---2-|
|-2-2-2-2-2-2-x-2-|-2-2-2-2-(2)-2-2-2-|-6-6-6-6-6-6---2-|
|-----------------|-------------------|-4-4-4-4-4-4---0-|


                     BII
  E E E E E E +E E   E E E E E E E E   E E E E +E  E E E
  | | | | | |  | |   | | | | | | | |   | | | |  |  | | |
  / / / / / /  / /   / / / / / / / /   / / / /  /  / / /

  E E E E E Q    E   E E E E E E E E   E E E E +E  E E E
|-0-0-0-0-0-0----0-|-----------------|-------------------|
|-0-0-0-0-0-0----0-|-4-4-5-4-5-4-x-4-|-5-4-4-5-(5)-4-5-4-|
|-2-2-2-2-0-1----1-|-4-4-4-4-4-4-x-4-|-4-4-4-4-(4)-4-4-4-|
|-2-2-2-2-2-2----2-|-4-4-4-4-4-4-x-4-|-4-4-4-4-(4)-4-4-4-|
|-2-2-2-2-2-2----2-|-2-2-2-2-2-2-x-2-|-2-2-2-2-(2)-2-2-2-|
|-0-0-0-0-0-0----0-|-----------------|-------------------|


  A                                  F#
  E E E E Q.   E   E E E E E E E E   Q  E E E E E E
  | | | | |    |   | | | | | | | |   |  | | | | | |
  / / / / /    /   / / / / / / / /   /  / / / / / /

  E E E E Q.   E   E E E E E E E E   Q  E E E E E E
|-0-0-0-0-0----0-|-0-0-0-0-0-0-0---|-2--2-2---2---2-|
|-0-0-0-0-0----0-|-0-0-0-0-0-0-0---|-2--2-2---2---2-|
|-2-2-2-2-2----2-|-2-2-2-2-2-2-2---|-3--3-3-3-3-3-3-|
|-2-2-2-2-2----2-|-2-2-2-2-2-2-2---|-4--4-4-4-4-4-4-|
|-0-0-0-0-0----0-|-0-0-0-0-0-0-0-0-|-4--4-4-4-4-4-4-|
|----------------|---------------0-|-2--2-2-2-2-2-2-|


                       A           E
  E E E E +E  E E E    Q  Q  E E E E   +Q   Q  E E E E
  | | | |  |  | | |    |  |  | | | |    |   |  | | | |
  / / / /  /  / / /    /  /  / / / /    /   /  / / / /

  E E E E +E  E E E    Q  Q  E E E E   +Q   Q  E E E E
|-2-2-2-------2-2---||-------------0-|-(0)--0--0-0-0-0-|
|-2-2-2-------2-2---||-------------0-|-(0)--0--0-0-0-0-|
|-3-3-3-3-(3)-3-3-2-||-2--2--------1-|-(1)--1--1-1-1-1-|
|-4-4-4-4-(4)-4-4-2-||-2--2--------2-|-(2)--2--2-2-2-2-|
|-4-4-4-4-(4)-4-4-0-||-0--0--------2-|-(2)--2--2-2-2-2-|
|-2-2-2-0-(0)-2-2---||-------0-3S4-0-|-(0)--0--0-0-0-0-|


  B
  Q    Q   E E E E
  |    |   | | | |
  /    /   / / / /

  Q    E E E Q   E
|----------------------|
|-4----5-4-5-4---9b11==|
|-4----4-4-4-4---9b13==|
|-4----6-4-6-4---------|
|----------------------|
|----------------------|
  H..            E


                                                    A           E
   +E           E           E           E  E E Q    Q  Q  E E E E
    |           |           |           |  | | |    |  |  | | | |
    /           /           /           /  / / /    /  /  / / / /

    E   a       E   a       E   a       E  E E Q    Q  Q  E E E E
|-------------------------------------------------|-------------0-|
|-(10)r-9b11==(10)r-9b11==(10)r-9b11==(10)r9------|-------------0-|
|-(11)r-9b13==(11)r-9b13==(11)r-9b13==(11)r9-7----|-2--2--------1-|
|----------------------------------------------9--|-2--2--------2-|
|-------------------------------------------------|-0--0--------2-|
|-------------------------------------------------|-------0-3S4-0-|
    E   a       E   a       E   a       E  E E Q


                    B
  +Q   Q  E E E E   Q    Q   E E E E
   |   |  | | | |   |    |   | | | |
   /   /  / / / /   /    /   / / / /

  +Q   Q  E E E E   Q    E E E Q   E
|-(0)--0--0-0-0-0-|----------------------|
|-(0)--0--0-0-0-0-|-4----5-4-5-4---9b11==|
|-(1)--1--1-1-1-1-|-4----4-4-4-4---9b13==|
|-(2)--2--2-2-2-2-|-4----6-4-6-4---------|
|-(2)--2--2-2-2-2-|----------------------|
|-(0)--0--0-0-0-0-|----------------------|
                    H..            E


 1.
   +E           E           E           E  E E Q
    |           |           |           |  | | |
    /           /           /           /  / / /

    E   a       E   a       E   a       E  E E Q
|--------------------------------------------------||
|-(10)r-9b11==(10)r-9b11==(10)r-9b11==(10)r9------o||
|-(11)r-9b13==(11)r-9b13==(11)r-9b13==(11)r9-7-----||
|----------------------------------------------9---||
|-------------------------------------------------o||
|--------------------------------------------------||
    E   a       E   a       E   a       E  E E Q


  2.
  B
    E           E           E           E  E E Q
    |           |           |           |  | | |
    /           /           /           /  / / /

    E   a       E   a       E   a       E  E E Q
|-------------------------------------------------|
|-(10)r-9b11==(10)r-9b11==(10)r-9b11==(10)r9------|
|-(11)r-9b13==(11)r-9b13==(11)r-9b13==(11)r9-7----|
|----------------------------------------------9--|
|-------------------------------------------------|
|-------------------------------------------------|
    E   a       E   a       E   a       E  E E Q


  A             E
  Q  Q  E   E E E   E E E E E E E E
  |  |  |   | | |   | | | | | | | |
  /  /  /   / / /   / / / / / / / /

  Q  Q  S E.  E E   E E E E E E E E
|---------------0-|-0-0-0-0-0-0-0-0-|
|---------------0-|-0-0-0-0-0-0-0-0-|
|-2--2--2-------1-|-1-1-1-1-1-1-1-1-|
|-2--2--2-------2-|-2-2-2-2-2-2-2-2-|
|-0--0--0-------2-|-2-2-2-2-2-2-2-2-|
|---------3S==4-0-|-0-0-0-0-0-0-0-0-|


  B                                  A                            E
  Q   Q  E E E E   E E E E E E E E   W          +H.            +E E
  |   |  | | | |   | | | | | | | |   |           |              | |
  /   /  / / / /   / / / / / / / /   /           /              / /

  Q   Q  E E E E   E E E E E E E E   W          +Q   E E +E  Q    E
|----------------|-----------------|-0--------|-(0)-----------------|
|----------------|-----------------|-0--------|-(0)-----------------|
|--------------4-|-4-4-4-4-4-4-4-4-|-2--------|-(2)-----------------|
|-4---4--4-4---4-|-4-4-4-4-4-4-4-4-|-2--------|-(2)-----------------|
|-0h2-2--2-2---2-|-2-2-2-2-2-2-2-2-|-0--------|-(0)-----------------|
|----------------|-----------------|----------|------0-3-(3)-2----0-|
  E E Q  Q   E E


                                    B                         E/B
  +W             +W                 Q   Q   E E E E    E  E E E   +E E +E S S
   |              |                 |   |   | | | |    |  | | |    | |  | | |
   /              /                 /   /   / / / /    /  / / /    / /  / / /

   H.      E E   +H     +E  Q  E    E E E E Q   E E   +E  Q   Q      Q    E
|------------0-|-(0)----(0)------||-----------------|--------------------------|
|------------0-|-(0)----(0)------||-----------------|--------------------------|
|------------0-|-(0)----(0)-8--7-||-8-7-------------|---------7b9---------7h===|
|------------0-|-(0)----(0)------||-----9-0-9---9-7-|-(7)-9----------9---------|
|--2-------2---|-----------------||-----------------|--------------------------|
|--0-------0---|-----------------||-----------------|--------------------------|


  B                           E/B              C#m             A
  Q   Q   E E E E    E  E  E  E +E  E +E S S   E E E E +E  E E E
  |   |   | | | |    |  |  |  |  |  |  | | |   | | | |  |  | | |
  /   /   / / / /    /  /  /  /  /  /  / / /   / / / /  /  / / /

  E E E E Q   e E    E  E  E  E  Q.      E     E E E E +E  E E E
|-----------------|----------------------0---|-0-0-0-0-(0)-0-0----|
|-----------------|----10----------------0---|-0-0-0-0-(0)-0-0----|
|-8-7---------0-9h|=11----11--9s=8-------8---|-9-9-9-8-(8)-8-8h9--|
|-----9---9-------|-----------------9--------|--------------------|
|-----------------|--------------------------|--------------------|
|-----------------|--------------------------|--------------------|
                     Q     Q.       Q    E     E E E E +E  E Q


                        B                         E/B
  E E +E E  E  E +E E   Q   Q   E E E E    E  E E E +E E +E S S
  | |  | |  |  |  | |   |   |   | | | |    |  | | |  | |  | | |
  / /  / /  /  /  / /   /   /   / / / /    /  / / /  / /  / / /

  E Q    E +E  E  E E   E E E E Q   E E   +E  Q   E  E E  E E
|-0-0----0-(0)-0--0---|-----------------|------------------------|
|-0-0----0-(0)-0--0---|-----------------|------------------------|
|-9-8----9-(9)-8--9-7h|=8-7-------------|---------7S=8------7h===|
|---------------------|-----9-0-9---9-7-|-(7)-9--------9--9------|
|---------------------|-----------------|------------------------|
|---------------------|-----------------|------------------------|
  E Q    E +E  E  E E


  B                           E/B              C#m             A
  Q   Q   E E E E    E  E  E  E +E  E +E S S   E E E E +E  E E E
  |   |   | | | |    |  |  |  |  |  |  | | |   | | | |  |  | | |
  /   /   / / / /    /  /  /  /  /  /  / / /   / / / /  /  / / /

  E E E E Q   E E    E  E  E  E  Q.      E     E E E E +E  E E E
|-----------------|----------------------0---|-0-0-0-0-(0)-0-0----|
|-----------------|----10----------------0---|-0-0-0-0-(0)-0-0----|
|-8-7---------0-9h|=11----11--9p=8-------8---|-9-9-9-8-(8)-8-8h9--|
|-----9-0-9-------|-----------------9--------|--------------------|
|-----------------|--------------------------|--------------------|
|-----------------|--------------------------|--------------------|
                     Q     Q.       Q    E     E E E E +E  E Q


                        B                         E/B
  E E +E E  E  E +E E   Q   Q   E E E E    E  E E E +E E +E S S
  | |  | |  |  |  | |   |   |   | | | |    |  | | |  | |  | | |
  / /  / /  /  /  / /   /   /   / / / /    /  / / /  / /  / / /

  E Q    E +E  E  E E   E E E E Q   E E   +E  Q   E  E E  E E
|-0-0----0-(0)-0--0---|-----------------|------------------------||
|-0-0----0-(0)-0--0---|-----------------|------------------------||
|-9-8----9-(9)-8--9-7h|=8-7-------------|---------7S=8------2----||
|---------------------|-----9-0-9---9-7-|-(7)-9--------9--9-2----||
|---------------------|-----------------|-------------------0----||
|---------------------|-----------------|------------------------||
  E Q    E +E  E  E E


  A           E                     B
  Q  Q  E E E E   +Q   Q  E E E E   Q    Q   E E E E
  |  |  | | | |    |   |  | | | |   |    |   | | | |
  /  /  / / / /    /   /  / / / /   /    /   / / / /

  Q  Q  E E E E   +Q   Q  E E E E   Q    E E E Q   E
|-------------0-|-(0)--0--0-0-0-0-|----------------------|
|-------------0-|-(0)--0--0-0-0-0-|-4----5-4-5-4---9b11==|
|-2--2--------1-|-(1)--1--1-1-1-1-|-4----4-4-4-4---9b13==|
|-2--2--------2-|-(2)--2--2-2-2-2-|-4----6-4-6-4---------|
|-0--0--------2-|-(2)--2--2-2-2-2-|----------------------|
|-------0-3S4-0-|-(0)--0--0-0-0-0-|----------------------|
                                    H..            E


   +E           E           E           E  E E Q
    |           |           |           |  | | |
    /           /           /           /  / / /

    E   a       E   a       E   a       E  E E Q
|---------------------------------------------------|
|-(10)r-9b11==(10)r-9b11==(10)r-9b11==(10)r9--------|
|-(11)r-9b13==(11)r-9b13==(11)r-9b13==(11)r9-7------|
|----------------------------------------------9----|
|---------------------------------------------------|
|---------------------------------------------------|
    E   a       E   a       E   a       E  E E Q


  A           E                     B
  Q  Q  E E E E   +Q   Q  E E E E   Q    Q   E E E E
  |  |  | | | |    |   |  | | | |   |    |   | | | |
  /  /  / / / /    /   /  / / / /   /    /   / / / /

  Q  Q  E E E E   +Q   Q  E E E E   Q    E E E Q   E
|-------------0-|-(0)--0--0-0-0-0-|----------------------|
|-------------0-|-(0)--0--0-0-0-0-|-4----5-4-5-4---9b11==|
|-2--2--------1-|-(1)--1--1-1-1-1-|-4----4-4-4-4---9b13==|
|-2--2--------2-|-(2)--2--2-2-2-2-|-4----6-4-6-4---------|
|-0--0--------2-|-(2)--2--2-2-2-2-|----------------------|
|-------0-3S4-0-|-(0)--0--0-0-0-0-|----------------------|
                                    H..            E


   +E           E           E           E  E E Q
    |           |           |           |  | | |
    /           /           /           /  / / /

    E   a       E   a       E   a       E  E E Q
|---------------------------------------------------|
|-(10)r-9b11==(10)r-9b11==(10)r-9b11==(10)r9--------|
|-(11)r-9b13==(11)r-9b13==(11)r-9b13==(11)r9-7------|
|----------------------------------------------9----|
|---------------------------------------------------|
|---------------------------------------------------|
    E   a       E   a       E   a       E  E E Q


  A           E                     B
  Q  Q  E E E E   +Q   Q  E E E E   Q    Q   E E E E
  |  |  | | | |    |   |  | | | |   |    |   | | | |
  /  /  / / / /    /   /  / / / /   /    /   / / / /

  Q  Q  E E E E   +Q   Q  E E E E   Q    E E E Q   E
|-------------0-|-(0)--0--0-0-0-0-|----------------------|
|-------------0-|-(0)--0--0-0-0-0-|-4----5-4-5-4---9b11==|
|-2--2--------1-|-(1)--1--1-1-1-1-|-4----4-4-4-4---9b13==|
|-2--2--------2-|-(2)--2--2-2-2-2-|-4----6-4-6-4---------|
|-0--0--------2-|-(2)--2--2-2-2-2-|----------------------|
|-------0-3S4-0-|-(0)--0--0-0-0-0-|----------------------|
                                    H..            E


   +E           E           E           E  E E Q
    |           |           |           |  | | |
    /           /           /           /  / / /

    E   a       E   a       E   a       E  Q   Q
|----------------------------------------------------||
|-(10)r-9b11==(10)r-9b11==(10)r-9b11==(10)r9---9-9---||
|-(11)r-9b13==(11)r-9b13==(11)r-9b13==(11)r9---9-9---||
|----------------------------------------------------||
|----------------------------------------------------||
|----------------------------------------------------||
    E   a       E   a       E   a       E  Q   E E


  AopenA7        Aopen     A7       Aopen
  Q.   H         E   +Q.   H        E
  |    |         |    |    |        |
  /    /         /    /    /        /

  E Q  E +E  Q.      +Q.   E +E  Q  E
|------------------|------------------|
|------2-(2)-------|-------------2----|
|-1s2--------2-----|-(2)------------1s|
|------------------|-------2-(2)----1s|
|------------------|------------------|
|------------------|------------------|


        A7       Aopen       A7        Aopen
  +Q.   H        E   +Q.     H         E
   |    |        |    |      |         |
   /    /        /    /      /         /

   Q.   E +E  Q  E   +E  E E E +E  Q   E
|------------------|----------------------|
|-------2-(2)------|---------2-(2)--------|
|--2----------2----|-----2---------2s==1s=|
|--2-------------2-|-(2)---2---------2s1--|
|------------------|----------------------|
|------------------|----------------------|
                      Q    Q    Q    E E


        A7        Aopen      A7       Aopen      A7      Aopen     A7   Aopen
  +Q.   H         E   +Q.    H        E   +Q.    H       E   +Q.   H    E
   |    |         |    |     |        |    |     |       |    |    |    |
   /    /         /    /     /        /    /     /       /    /    /    /

   Q.   E +E  Q.      +Q   E E +E  Q  E    Q   E E E Q.      +W
|-------------------|-------------------|------------------|--------------||
|-------2-(2)-------|--------2-(2)------|--------2-2-------|--------------||
|--2----------2-----|-(2)----------3s=1s|==2---2-----2-----|-(2)S=========||
|--2----------------|------2----------1-|--2-------------2-|-(2)S=========||
|-------------------|-------------------|------------------|--------------||
|-------------------|-------------------|------------------|--------------||
                       Q   Q    E  Q  E    Q   Q   E Q   E


  F#                 E               F#                     E
   H.       +E   E   H.      +E  E    H     E.  S  +E   E   H.      +E  E
   |         |   |   |        |  |    |     |   |   |   |   |        |  |
   /         /   /   /        /  /    /     /   /   /   /   /        /  /

   H.       +E   E   H.      +E  E    H     E.  S  +E   E   H.      +E  E
|------------------|---------------|----------------------|----------------|
|-11-------(11)-11s|=9-------(9)-9s|=11----11--11-(11)-11s|=9-------(9)-9s=|
|-11-------(11)-11s|=9-------(9)-9s|=11----11--11-(11)-11s|=9-------(9)-9s=|
|-11-------(11)-11s|=9-------(9)-9s|=11----11--11-(11)-11s|=9-------(9)-9s=|
|------------------|---------------|----------------------|----------------|
|------------------|---------------|----------------------|----------------|


  F#                     E               F#                     E
   H     E.  S  +E   E   H.      +E  E    H     E.  S  +E   E   W
   |     |   |   |   |   |        |  |    |     |   |   |   |   |
   /     /   /   /   /   /        /  /    /     /   /   /   /   /

   H     E.  S  +E   E   H.      +E  E    H     E.  S  +E   E   W
|----------------------|---------------|----------------------|------||
|-11----11--11-(11)-11s|=9-------(9)-9s|=11----11--11-(11)-11s|=9----||
|-11----11--11-(11)-11s|=9-------(9)-9s|=11----11--11-(11)-11s|=9----||
|-11----11--11-(11)-11s|=9-------(9)-9s|=11----11--11-(11)-11s|=9----||
|----------------------|---------------|----------------------|------||
|----------------------|---------------|----------------------|------||


  F#                  E              F#                  E
            |--3--|         |-3-|              |--3--|         |-3-|
  Q     Q   Q  Q  Q   Q  Q  Q Q Q    Q     Q   Q  Q  Q   Q  Q  Q Q Q
  |     |   |  |  |   |  |  | | |    |     |   |  |  |   |  |  | | |
  /     /   /  /  /   /  /  / / /    /     /   /  /  /   /  /  / / /

            |--3--|                            |--3--|
  E  Q.     Q  Q  Q   W              E  Q.     Q  Q  Q   W
|-------------------|--------------|-------------------|--------------|
|-9s11-----11-11-11s|=9------------|-9s11-----11-11-11s|=9------------|
|-9s11-----11-11-11s|=9------------|-9s11-----11-11-11s|=9------------|
|-9s11-----11-11-11s|=9------------|-9s11-----11-11-11s|=9------------|
|-------------------|--------------|-------------------|--------------|
|-------------------|--------------|-------------------|--------------|


  F#                  E              F#                  E
            |--3--|         |-3-|              |--3--|         |-3-|
  Q     Q   Q  Q  Q   Q  Q  Q Q Q    Q     Q   Q  Q  Q   Q  Q  Q Q Q
  |     |   |  |  |   |  |  | | |    |     |   |  |  |   |  |  | | |
  /     /   /  /  /   /  /  / / /    /     /   /  /  /   /  /  / / /

            |--3--|                            |--3--|
  E  Q.     Q  Q  Q   W              E  Q.     Q  Q  Q   W
|-------------------|--------------|-------------------|-4------------||
|-9s11-----11-11-11s|=9------------|-9s11-----11-11-11s|=5------------||
|-9s11-----11-11-11s|=9------------|-9s11-----11-11-11s|=4------------||
|-9s11-----11-11-11s|=9------------|-9s11-----11-11-11-|--------------||
|-------------------|--------------|-------------------|--------------||
|-------------------|--------------|-------------------|--------------||


    F#    E             F#    E
    |-3-| |-3-| |-3-|   |-3-| |-3-| |-3-|
    Q Q Q E E E E E E   Q Q Q E E E E E E
    | | | | | | | | |   | | | | | | | | |
    / / / / / / / / /   / / / / / / / / /

    |-3-| |-3-| |-3-|   |-3-| |-3-| |-3-|
    Q Q Q E E E E E E   Q Q Q E E E E E E
||--2-2-2-0-0-0-0-0-0-|-2-2-2-0-0-0-0-0-0-|
||o-2-2-2-0-0-0-0-0-0-|-2-2-2-0-0-0-0-0-0-|
||--3-3-3-1-1-1-1-1-1-|-3-3-3-1-1-1-1-1-1-|
||--4-4-4-2-2-2-2-2-2-|-4-4-4-2-2-2-2-2-2-|
||o-4-4-4-2-2-2-2-2-2-|-4-4-4-2-2-2-2-2-2-|
||--2-2-2-0-0-0-0-0-0-|-2-2-2-0-0-0-0-0-0-|


  F#    E             F#    E
  |-3-| |-3-| |-3-|   |-3-| |-3-| |-3-|
  Q Q Q E E E E E E   Q Q Q E E E E E E
  | | | | | | | | |   | | | | | | | | |
  / / / / / / / / /   / / / / / / / / /

  |-3-| |-3-| |-3-|   |-3-| |-3-| |-3-|
  Q Q Q E E E E E E   Q Q Q E E E E E E
|-2-2-2-0-0-0-0-0-0-|-2-2-2-0-0-0-0-0-0-|
|-2-2-2-0-0-0-0-0-0-|-2-2-2-0-0-0-0-0-0-|
|-3-3-3-1-1-1-1-1-1-|-3-3-3-1-1-1-1-1-1-|
|-4-4-4-2-2-2-2-2-2-|-4-4-4-2-2-2-2-2-2-|
|-4-4-4-2-2-2-2-2-2-|-4-4-4-2-2-2-2-2-2-|
|-2-2-2-0-0-0-0-0-0-|-2-2-2-0-0-0-0-0-0-|


  F#    E             F#    E
  |-3-| |-3-| |-3-|   |-3-| |-3-| |-3-|
  Q Q Q E E E E E E   Q Q Q E E E E E E
  | | | | | | | | |   | | | | | | | | |
  / / / / / / / / /   / / / / / / / / /

  |-3-| |-3-| |-3-|   |-3-| |-3-| |-3-|
  Q Q Q E E E E E E   Q Q Q E E E E E E
|-2-2-2-0-0-0-0-0-0-|-2-2-2-0-0-0-0-0-0-|
|-2-2-2-0-0-0-0-0-0-|-2-2-2-0-0-0-0-0-0-|
|-3-3-3-1-1-1-1-1-1-|-3-3-3-1-1-1-1-1-1-|
|-4-4-4-2-2-2-2-2-2-|-4-4-4-2-2-2-2-2-2-|
|-4-4-4-2-2-2-2-2-2-|-4-4-4-2-2-2-2-2-2-|
|-2-2-2-0-0-0-0-0-0-|-2-2-2-0-0-0-0-0-0-|


  F#    E             F#    E
  |-3-| |-3-| |-3-|   |-3-| |-3-| |-3-|
  Q Q Q E E E E E E   Q Q Q E E E E E E
  | | | | | | | | |   | | | | | | | | |
  / / / / / / / / /   / / / / / / / / /

  |-3-| |-3-| |-3-|   |-3-| |-3-| |-3-|
  Q Q Q E E E E E E   Q Q Q E E E E E E
|-2-2-2-0-0-0-0-0-0-|-2-2-2-0-0-0-0-0-0---||
|-2-2-2-0-0-0-0-0-0-|-2-2-2-0-0-0-0-0-0--o||
|-3-3-3-1-1-1-1-1-1-|-3-3-3-1-1-1-1-1-1---||
|-4-4-4-2-2-2-2-2-2-|-4-4-4-2-2-2-2-2-2---||
|-4-4-4-2-2-2-2-2-2-|-4-4-4-2-2-2-2-2-2--o||
|-2-2-2-0-0-0-0-0-0-|-2-2-2-0-0-0-0-0-0---||


Duration Legend
---------------
W - whole; H - half; Q - quarter; E - 8th; S - 16th; T - 32nd; X - 64th; a - acciaccatura
+ - note tied to previous; . - note dotted; .. - note double dotted
Uncapitalized letters represent notes that are staccato (1/2 duration)
Irregular groupings are notated above the duration line
Duration letters will always appear directly above the note/fret number it represents the
duration for.  Duration letters with no fret number below them represent rests.  Multi-
bar rests are notated in the form Wxn, where n is the number of bars to rest for.  Low
melody durations appear below the staff

Tablature Legend
----------------
 h   - hammer-on
 p   - pull-off
 b   - bend
 pb  - pre-bend
 r   - bend release (if no number after the r, then release immediately)
 /\  - slide into or out of (from/to "nowhere")
 s   - legato slide
 S   - shift slide
  - natural harmonic
[n]  - artificial harmonic
n(n) - tapped harmonic
 ~   - vibrato
 tr  - trill
 T   - tap
 TP  - trem. picking
 PM  - palm muting
\n/  - tremolo bar dip; n = amount to dip
 \n  - tremolo bar down
 n/  - tremolo bar up
/n\  - tremolo bar inverted dip
 =   - hold bend; also acts as connecting device for hammers/pulls
 <>  - volume swell (louder/softer)
 x   - on rhythm slash represents muted slash
 o   - on rhythm slash represents single note slash

Misc Legend
-----------
 |  - bar
||  - double bar
||o - repeat start
o|| - repeat end
*|  - double bar (ending)
 :  - bar (freetime)
 $  - Segno
 &  - Coda
Tempo markers -  = BPM(8/16=s8/s16), where s8 = swing 8ths, s16 = swing 16ths


            
            
Suggest correction
Creating personal tab
Creating personal tab
You can edit any tab online and save it as your Personal.

You can edit, replace or remove any tab part or add personal notes – all changes will be seen only by you.

Personal tabs can be accessed anytime from any device, even offline.
Learn more »
comments
print report bad tab
2 comments total.
0 reply
doddsyboy99 161 Apr 22, 2010 06:09 AM

would be perfect if it had words against it.

good tab tho

0 reply
achlaksuoy 182 Mar 31, 2015 06:35 PM

Like clearly a lot of effort has gone into this, but i'm afraid i have to give it a low rating just because of it's near impossibility to easily pick up, and isn't that what tabs are supposed to be, quite simple to see what it's trying to say. Not gonna lie it was a lot of effort to go through that.

guest
You may want to rate the tab now too:
select rating
Wanna post a correction for this tab? Suggest correction