Oops, an error
Loading. Please wait.
We have Chord Pro version of Shes Electric.
It's the closest thing you can get to the original song and it has interactive parts. Check out the tab »
×
by Oasis
2,937 views 9 this week
1 commentread comment
1 2 3 4 5
x 3
add to favorites
×
Save as Personal and add changes to this tab that will be seen only by you. Learn more ›
×
You can save this tab as Personal to edit and correct it or add notes. All changes will be seen only by you. Learn more »
launch autoscroll
font size
0
reset
guitar tuner
backing track
0:00
0:00
edit
Autoscroll
slow
fast
+/-
esc
set tempo
stop
Author
Difficulty
Taken from Oasis Morning Glory Album, recorded in 1995
Original Bassist Paul "Guigsy" McGuigan. Tab: bass50611
Having looked at other bass tabs on this song thought
I'd better tab the correct version. Listen to the song
to get the syncopation for the verse and listen for the
cymbals for the octaves in the chorus.
Any comments bass254@btinternet.com

Intro:
G|-------------------------------------------------------------------|
D|-4-4-4-4-4-4-4-4---------------------------------------------------|
A|-------------------------------------------4-44--------------------|
E|-----------------2-2-2-2-2-2-2-1-0-0---4-4------5---55---0-0---4-4-|

G|----------------------------------------------------------|
D|----------------------------------------------------------|
A|-4-44--------------------4-44---------3-3---5-5---7-7-7-7-|
E|------5---55---0-0---4-4------5---55----------------------|

Verse: (PLAY x2)
G|-----------------------------------------------------------------------|
D|-----------------------------------------------------------------------|
A|-----------4-44--------------------4-44--------------------4-44--------|
E|-0-0---4-4------5---55---0-0---4-4------5---55---0-0---4-4------5---55-|

                           (ENDING 2nd TIME AND INTO CHORUS)
G|---------------------|  |---------------------|
D|---------------------|  |---------------------|
A|-3-3---5-5---7-7-7-7-|  |3-3---5-5---7-7-754--|
E|---------------------|  |-------------------7-|

Chorus:
G|--------------------------------------------------------------------|
D|--------------------------------------------------------------------|
A|---------4-4-4-4---------4-4-4-4---------4-4-4-4---7-7-7-7-7-7-754--|
E|-5-5-5-5---------5-5-5-5---------5-5-5-5--------------------------7-|
                                                   (PLAYING OCTAVES)
G|--------------------------------------------------------------------|
D|----------------------------------------------------2-2---2-2---2-2-|
A|---------4-4-4-4---------4-4-4-4---------4-4-4-4--------------------|
E|-5-5-5-5---------5-5-5-5---------5-5-5-5---------0-0---0-0---0-0----|
      (OCTAVES)
G|-------------------------------------|
D|----2-2----4-4---4-4-----------------|
A|---------------------2-2-2-2-2-2-2-2-|
E|-0-0----2-2---2-2--------------------|

Solo:
G|-----------------------------------------------------------------------|
D|-----------------------------------------------------------------------|
A|-----------4-44--------------------4-44--------------------4-44--------|
E|-0-0---4-4------5---55---0-0---4-4------5---55---0-0---4-4------5---55-|

G|---------------------|
D|---------------------|
A|-3-3---5-5---7-7-7-7-|
E|---------------------|

REPEAT VERSE AND CHORUS AS ABOVE:

Outro: (PLAY THIS x7)      (LAST TIME)              (BREAK)
G|---------------------|  |------------------------------------|
D|---------------------|  |------------------------------------|
A|-3-3---5-5---7-7-7-7-|  |-3-3-3-3---5-3-2------7-----------7-|
E|---------------------|  |-----------------3----------------0-|

            
            
Suggest correction
Creating personal tab
Creating personal tab
You can edit any tab online and save it as your Personal.

You can edit, replace or remove any tab part or add personal notes – all changes will be seen only by you.

Personal tabs can be accessed anytime from any device, even offline.
Learn more »
Give kudos to tab author, rate the tab!
1 2 3 4 5
comments
print report bad tab
1 comment total.
0 reply
nickj4759 10 May 29, 2013 02:46 AM

well done saved me some time rock on.

guest
You may want to rate the tab now too:
select rating
Wanna post a correction for this tab? Suggest correction