Oops, an error
Loading. Please wait.
We have Chord Pro version of Slide Away.
It's the closest thing you can get to the original song and it has interactive parts. Check out the tab »
×
by Oasis
781 views 3 this week
no commentswrite comment
1 2 3 4 5
x 3
add to favorites
×
Save as Personal and add changes to this tab that will be seen only by you. Learn more ›
×
You can save this tab as Personal to edit and correct it or add notes. All changes will be seen only by you. Learn more »
launch autoscroll
font size
0
reset
how to read this tab
guitar tuner
edit
Autoscroll
slow
fast
+/-
esc
set tempo
stop
Author
Difficulty
-------------------------------------------------------------------------------
                          Oasis-Slide Away Early Studio Version
-------------------------------------------------------------------------------
Tuning-E Standar Tuning: Real Tuning A449

Hope you like and serve.
This is not the original version, i'ts the first recording sounds in studio.
Here I give you the link of the song studio : https://www.youtube.com/watch?v=NRGXqUwEYOw
The video channel isn't mine but I tabbed the song

  Intro      Riff                    Am                               G  Fmaj7
e|------|-------3--3---3---------3---0-0-0-0-0-0---0-0-0-0---0-0------3--0-0-0-0-|
B|------|-------1--1------1--0---1---1-1-1-1-1-1---1-1-1-1---1-1------3--1-1-1-1-|
G|-5h7--|-------0--0-------------0---2-2-2-2-0-0h2-2-2-2-2-2b3-0------0--2-2-2-2-|
D|------|-------2--2-------------2---2-2-2-2-0-0h2-2-2-2-2-2b3-0------0--3-3-3-3-|
A|------|-0-----0--0-------------0---0-0-0-0-0-0---0-0-0-0---0-0------2--3-3-3-3-|
E|------|-----------------------------------------------------------3-3----------|

e|---------------------------------------------------------------------------|
B|---------------------------------------------------------------------------|
G|--7b9-9r7---7b9-9r7-----5-------------------5------------------------------|
D|---------------------------7----------5h7------7-----------5---------------|
A|--------------------------------5h7------------------5b7------0------------|
E|---------------------------------------------------------------------------|

Verse
   Am                      G  Fmaj7
e|-0--0-0-0-0-0-0---0-0----3--0-0-0-0-0-----------------------------------------|
B|-1--1-1-1-1-1-1---1-1----3--1-1-1-1-0-----------------------------------------|
G|-0-h2-2-2-2-2-2-2b3-0----0--2-2-2-2-0-----------------------------------------|
D|-0-h2-2-2-2-2-2-2b3-0----0--3-3-3-3-0-----------------------------------------| x4
A|-0--0-0-0-0-0-0---0-0----2--3-3-3-3-0-----------------------------------------|
E|-----------------------3-3----------------------------------------------------|

e|-----------------|
B|-----------------|If you don't want to play the chords you can play this little tab in the end of 
G|-----------------|Am - G - Fmaj7 like this: (chord guitar Am-G-Fmaj7) and then you this tab.
D|-------5---------|
A|---5b7----0------|
E|-----------------|

e|---------------------------------------------------------------------------|
B|---------------------------------------------------------------------------|This tap is when the  
G|------------7b9---9r7p5---5------------------------------------------------|Chord Fmaj7 from the
D|------------------------7---7----------------------------------------------|4th time is playing.
A|---------------------------------------------------------------------------|You can also play the
E|---------------------------------------------------------------------------|chord.


Verse - another 4 times Am - G - Fmaj7


Pre-chorus or Bridge
e|------------------------------------------------------------------------------|
B|------------------------------------------------------------------------------|
G|---7---7--7---7--7---7--7---7--7---7--7---7--7---7--7---7--7---7---7----------|
D|---7h9-7--7h9-7--7h9-7--7h9-7--7h9-7--7h9-7--7h9-7--7h9-7--7h9-7h9-7----------|
E|------------------------------------------------------------------------------|
 
Chorus-part1
   C       G             Fmaj7
e|-0-------------------------0--------------------------------------------|
B|-1-------------------------1--------------------------------------------|The mini -tap replaces the 
G|-0------------------5---5--2-x14----------------------------------------|G chord but if you don't 
D|-2-------5----------5h7-5--3--------------------------------------------|want to touch the tap you
A|-3-----7---7-5-------------3--------------------------------------------|can touch the chords:
E|------------------------------------------------------------------------|C-G-Fmaj7

Chorus-part2

e|---------------------------------------------------------------------------|
B|---------------------------------------------------------------------------|
G|---------------------------------------------------------------------------|
D|-----5h7---7-7/9---9-9h10----10-10/12--------------------------------------|
A|---------------------------------------------------------------------------|
E|---------------------------------------------------------------------------|

Chorus-part3

   C                     Fmaj7
e|-0------------------------0------------------------------------------------|
B|-1------------------------1------------------------------------------------|
G|-0----------------5---5---2-x14--------------------------------------------|
D|-2-------5--------5h7-5---3------------------------------------------------|
A|-3-----7---7-5------------3------------------------------------------------|
E|---------------------------------------------------------------------------|

Chorus-part4

e|---------------------------------------------------------------------------|
B|---------------------------------------------------------------------------|
G|---------------------------------------------------------------------------|
D|-----5h7---7-7/9-----------------------------------------------------------|
A|---------------------------------------------------------------------------|
E|---------------------------------------------------------------------------|

Chorus-part5

e|---------------------------------------------------------------------------|
B|---------------------------------------------------------------------------|
G|-------7b9----9r7--7b9-9r7---5---------------------------------------------|
D|---------------------------------7-----------------------------------------|x 3 
A|---------------------------------------------------------------------------|
E|---------------------------------------------------------------------------|

Chorus-part6
    G       E
e|--3-------0----------------------------------------------------------------|
B|--3-------0----------------------------------------------------------------|
G|--0-------1----------------------------------------------------------------|
D|--0-------2----------------------------------------------------------------|
A|--2-------2----------------------------------------------------------------|
E|--3-------0----------------------------------------------------------------|



e--------------5---------------------------8-8h10p8----------------------------------|
B----------------5---------------------8h10---------10-8-8h10------------------------|
G-7b9------r7------7-5--5-5h7-5--------------------------------7b9-9r7-5-5-5h7-5-----|
D-------------------------------5h7----------------------------------------------5h7-|
A------------------------------------------------------------------------------------|
E------------------------------------------------------------------------------------|

e|------------------------------------------------------------------------------------|
B|------------------------------------------------------------------------------------|
G|---------------19b21---21r19-17---------------17-19p17--19b21-19b21-21r19-17--------|
D|-----5--------------------------19-------17h19-------------------------------19-----|
A|-5b7---0----------------------------17h19-------------------------------------------|
E|------------------------------------------------------------------------------------|

e|------------------------------------------------------------------------------------|
B|------------------------------------------------------------------------------------|
G|------------------------------------------------------------------------------------|
D|-------17-17------------------------------------------------------------------------|
A|-17h19-------19-17-15---------------------------------------------------------------|
E|----------------------17-15h17------------------------------------------------------|

Verse - 4 Times Am - G - Fmaj7 (i don't play first part of Am-G-Fmaj7 when i finish the solo, i play
                                 it 3 times.)
Bridge - Pre-chorus.

Chorus- Part 1 to Part 4 (don't play part5 or part6)

Outro:
e|---------------------------------------------------------------------------|
B|---------------------------------------------------------------------------|
G|-------7b9---9r7---7b9-9r7----5--------------------------------------------|
D|---------------------------------7-----------------------------------------|x 8
A|---------------------------------------------------------------------------|
E|---------------------------------------------------------------------------|
  
  Only 1st time
e|------------|----------------------------------------------------------------------|
B|------------|----------------------------------------------------------------------|
G|----------7-|--7b9--7-5-7-5------------7-7---7-------------------------------------|
D|-----5h7----|--------------7-----5h7------5----5-----------------------------------|x4
A|-5h7--------|----------------5h7---------------------------------------------------|
E|------------|----------------------------------------------------------------------|

e|---------------------------------------------------------|    this is more improvisation as
B|-x-x-x-x--5-5b6------------------------------------------|    they may touch these two sets 
G|-x-x-x-x--5-5b6------------------------------------------|x16 of notes in different ways ( with 
D|-x-x-x-x--7-5b6------------------------------------------|    or without b , with or without x, 
A|---------------------------------------------------------|    etc. )
E|---------------------------------------------------------|

e|---------------------------------------------------------------------------|
B|---------------------------------------------------------------------------|
G|-------7b9--9r7--7p5----5--------------------------------------------------|
D|---------------------7----7--5h7-------------------------------------------|x6
A|---------------------------------------------------------------------------|
E|---------------------------------------------------------------------------|

it starts to sound like this:

e|-----------------------------------------------|
B|--------------13---------13---------13---------|
G|-------12h14--------12h14------12h14-----------|Repeat this a few of times
D|-----------------------------------------------|
A|-----------------------------------------------|
E|-----------------------------------------------|

Then it sounds:

e|---------------------------------------------------------------------------|
B|----15b17--15-13-15-13--15b17-17r15----------------------------------------|
G|---------------------------------------------------------------------------|x4
D|---------------------------------------------------------------------------|
A|---------------------------------------------------------------------------|
E|---------------------------------------------------------------------------|

e|---------------------------------------------------------------------------|
B|----------------5---5------------------------------------------------------|
G|----------------7b9-7b9--7-5---5-------------------------------------------|
D|-----------------------------7---7-5h7-------------------------------------|x7
A|---------------------------------------------------------------------------|
E|---------------------------------------------------------------------------|


e|-----------------------------------------------------------------|
B|----5----5----5----5----5----------------------------------------|
G|----5----5----5----5----5-----5----------------------------------|
D|----7p5--7p5--7p5--7p5--7p5-----7--------------------------------|
A|-----------------------------------------------------------------|
E|-----------------------------------------------------------------|

e|---------------------------------------------------------------------------|
B|----------------5---5------------------------------------------------------|
G|----------------7b9-7b9--7-5---5-------------------------------------------|
D|-----------------------------7---7-----------------------------------------|x3
A|---------------------------------------------------------------------------|
E|---------------------------------------------------------------------------|

e|---------------------------------------------------------------------------|
B|----------------x-x-x-x-5----5---------------------------------------------|
G|----------------x-x-x-x-5----5---------------------------------------------|
D|----------------x-x-x-x-7p5--5---------------------------------------------|x2
A|---------------------------------------------------------------------------|
E|---------------------------------------------------------------------------|

e|---------------------------------------------------------------------|
B|-----------5-----5-----5-----5-----5-----5-----5-----5-----5-----5---|
G|---------7-7b9-7-7b9-7-7b9-7-7b9-7-7b9-7-7b9-7-7b9-7-7b9-7-7b9-7-7b9-|
D|---------------------------------------------------------------------|
A|---------------------------------------------------------------------|
E|---------------------------------------------------------------------|


e|---------------------------------------------------------------------------|
B|---------------------------------------------------------------------------|
G|----5-5----5----------5-5-------5----5----5----5h7-------------------------|
D|--------7----7--5h7-------7-5h7---7----7----7------------------------------|
A|---------------------------------------------------------------------------|
E|---------------------------------------------------------------------------|


e|---0------------------------------0------------------------------------------| The last chord is
B|-----0----------------------------0------------------------------------------| played from first 
G|-------5--------------------------5------------------------------------------| string to last.
D|---------5------------------------5------------------------------------------|
A|----------------------------------x------------------------------------------|
E|-----------5----------------------5------------------------------------------|

************************************

| /   slide up
| \   slide down
| h   hammer-on
| p   pull-off
| x   Mute note
| b   Bend
| r  Bend release

************************************

Rate please!!! 
Suggest correction
Creating personal tab
Creating personal tab
You can edit any tab online and save it as your Personal.

You can edit, replace or remove any tab part or add personal notes – all changes will be seen only by you.

Personal tabs can be accessed anytime from any device, even offline.
Learn more »
Give kudos to tab author, rate the tab!
1 2 3 4 5
comments
print report bad tab
guest
You may want to rate the tab now too:
select rating
Wanna post a correction for this tab? Suggest correction