Oops, an error
Loading. Please wait.
We have Chord Pro version of Slide Away.
It's the closest thing you can get to the original song and it has interactive parts. Check out the tab »
×
by Oasis
4,357 views 207 this week
1 commentread comment
1 2 3 4 5
2 more votes to show rating
add to favorites
×
Save as Personal and add changes to this tab that will be seen only by you. Learn more ›
×
You can save this tab as Personal to edit and correct it or add notes. All changes will be seen only by you. Learn more »
launch autoscroll
font size
0
reset
transpose
0
reset
simplify chords
display chords
guitar tuner
edit
Autoscroll
slow
fast
+/-
esc
set tempo
stop
Strumming
There is no strumming pattern for this song yet. and get +5 IQ
-------------------------------------------------------------------------------
                             SLIDE AWAY - Oasis/Noel Gallagher & Gem Archer
-------------------------------------------------------------------------------
Tabbed by: João Valério
Based a bit on TheCatknTheHat's tab


Slide Away from the Sitting Here in Silence Acoustic concert
Written by: Noel Gallagher


Use a capo on the 4th fret
Chords and tab relative to capo


Chords:         
Em     = 022000
Em7    = 020000
Em6    = 042000
Cmaj7  = 032000
G      = 320033
D      = xx0232
Dsus2  = 000320
Cadd9  = x23030
Em7*   = 022030
Asus4  = x02230
B11    = x21200


Intro:


Gem plays this in the intro, verses and bridge while noel plays the chords:

       Em       Em7       Em6     Cmaj7  
e|------0----------0--------0--------0------|
B|----0---0------0---0----0---0----0---0----|
G|----------------------2--------0----------|
D|--2---------0-----------------------------|
A|------------------------------------------|
E|------------------------------------------|


Verse 1:

Em         Em7    Em6               Cmaj7
Slide away,   and give it all you've got

Em       Em7  Em6           Cmaj7
My today,     fell in from the top

Em             Em7    Em6               Cmaj7
I dream of you,   and all  the things you say

Em                   Em7     Em6  Cmaj7
  I wonder where you are now


Verse 2:

Em           Em7  Em6            Cmaj7
Hold me down,     all the world's asleep

Em             Em7    Em6         Cmaj7
I need you now,   you got  me on my knees

Em             Em7       Em6           Cmaj7
I dream of you,   and we talk of growing old

Em              Em7         Em6  Cmaj7
  But you said please don't


Bridge:

    Em6    Cmaj7
So, Slide in Baby

  Em6        Cmaj7
Together we'll fly

Em6      Cmaj7
I    tried praying

      Em6                             Dsus2
But I don't know what you're saying to me


Chorus:

                G
Now that you're mine

             D                   Cadd9
we'll find a way  of chasing the sun

              Em7*                  D
Let me be the one, that shines with you

       Asus4                          Cadd9
In the morning, we don't know what to do

               G                  D
We're two of a kind, we'll find a way

                 Cadd9
To do what we've done

              Em7*                  D
Let me be the one, that shines with you

                  Cadd9  Asus4
And we can slide away

       Cadd9  Asus4
Slide away

       Cadd9  Asus4
Slide away

D    B11
Away


Solo(Relative to capo):


e|------------0--------------------------------------------------0------------------------------------|
B|--------------0------------------------------------------------0------------------------------------|
G|-----/4~--------2-0----0h2-0---------------0-0h2p0-------------0-------/4-2~-0-----0h2-0------------|
D|------------------------------2~-------0h2---------2-0---0h2---2--------------------------2~--------|
A|-------------------------------------------------------2--------------------------------------------|
E|----------------------------------------------------------------------------------------------------|

e|-----------------------------0----------------------------------------------0-----------------------|
B|-----------------------------0----------------------------------------------0-----------------------|
G|-----------------------14b16-----16r14-12-------------------14--12h14-14b16-----16r14-12------------|
D|-------------------------------------------14~----------12h14-------------------------------14~-----|
A|------1-0-----------------------------------------12h14---------------------------------------------|
E|----------3/5p0-------------------------------------------------------------------------------------|

e|----------------------------------------------------------------------------------------------------|
B|----------------------------------------------------------------------------------------------------|
G|--------------12------------------------------------------------------------------------------------|
D|--------12h14---------------------------------------------------------------------------------------|
A|-12h14-------------14---12---10--------10h12-10\----------------------------------------------------|
E|----------------------------------------------------------------------------------------------------|

                                       Slide out from the last note, play the Em chord then hold it
                                                  



Start playing this after the second chord progression and go until the chorus:

       Em7       Em6      Cmaj7     Em
e|------0----------0--------0--------0------|
B|----0---0------0---0----0---0----0---0----|
G|------------2---------0-------------------|
D|--0----------------------------2----------|
A|------------------------------------------|
E|------------------------------------------|



Verse 3:

Em         Em7    Em6              Cmaj7
Slide away,   and give it all you've got

Em       Em7  Em6             Cmaj7
My today,     fell in from the top

Em             Em7    Em6                Cmaj7
I dream of you,   and all  the things you say

Em                   Em7     Em6  Cmaj7
  I wonder where you are now


Bridge:

    Em6    Cmaj7
So, Slide in Baby

  Em6        Cmaj7
Together we'll fly


Em6      Cmaj7
I    tried praying

      Em6                            Dsus2
But I don't know what you're saying to me


Chorus:

                G
Now that you're mine

             D                   Cadd9
we'll find a way  of chasing the sun

              Em7*                  D
Let me be the one, that shines with you

       Asus4                          Cadd9
In the morning, we don't know what to do

               G                  D
We're two of a kind, we'll find a way

                 Cadd9
To do what we've done

              Em7*                  D
Let me be the one, that shines with you

                  Cadd9  Asus4
And we can slide away

       Cadd9  Asus4
Slide away

       Cadd9  Asus4
Slide away

       Cadd9  Asus4
Slide away


Outro:

Cadd9
     I don't know, I don't care

Asus4
All  I know is you take me there

Cadd9
     I don't know, I don't care

Asus4
All  I know is you take me there

Cadd9
     I don't know, I don't care

Asus4
All  I know is you take me there

Cadd9
     I don't know, I don't care

Asus4
All  I know is you take me there

Cadd9
Take  me there, take me there

Asus4
Take  me there, take me there

Cadd9
Take  me there, take me there

Asus4
All  I know is you take me there

Cadd9
Take  me there, take me there

Asus4
Take  me there, take me there

Cadd9
Take  me there, take me theeeeeeeeeeeeeeeeeeeeeeere


Cadd9  Asus4  x2


       Cadd9
Slide away
       Asus4
Slide away, yeah
       Cadd9
Slide away
       Asus4
Slide away, yeah
       Cadd9
Slide away
       Asus4
Slide away
       Cadd9
Slide away
       Asus4
Slide away...


Then finish with Cadd9


************************************

| /   slide up
| \   slide down
| h   hammer-on
| p   pull-off
| ~   vibrato
| +   harmonic
| x   Mute note
| b   Bend
| pb  Pre-bend
| br  Bend release
| pbr Pre-bend release
| brb Bend release bend

************************************************************************

            
            
Suggest correction
Creating personal tab
Creating personal tab
You can edit any tab online and save it as your Personal.

You can edit, replace or remove any tab part or add personal notes – all changes will be seen only by you.

Personal tabs can be accessed anytime from any device, even offline.
Learn more »
Give kudos to tab author, rate the tab!
1 2 3 4 5
comments
print report bad tab
1 comment total.
0 reply
jojovalerio123 10 Feb 25, 2016 02:42 PM

-------------------------------------------------------------------------------
SLIDE AWAY - Oasis/Noel Gallagher & Gem Archer
-------------------------------------------------------------------------------
Tabbed by: João Valério
Based a bit on TheCatknTheHat's tab

Slide Away from the Sitting Here in Silence Acoustic concert
Written by: Noel Gallagher

Use a capo on the 4th fret
Chords and tab relative to capo

Chords:
Em = 022000
Em7 = 020000
Em6 = 042000
Cmaj7 = 032000
G = 320033
D = xx0232
Dsus2 = 000320
Cadd9 = x23030
Em7* = 022030
Asus4 = x02230
B11 = x21200

Intro:

Gem plays this in the intro, verses and bridge while noel plays the chords:

Em Em7 Em6 Cmaj7
e|------0----------0--------0--------0------|
B|----0---0------0---0----0---0----0---0----|
G|----------------------2--------0----------|
D|--2---------0-----------------------------|
A|------------------------------------------|
E|------------------------------------------|

Verse 1:

Em Em7 Em6 Cmaj7
Slide away, and give it all you've got

Em Em7 Em6 Cmaj7
My today, fell in from the top

Em Em7 Em6 Cmaj7
I dream of you, and all the things you say

Em Em7 Em6 Cmaj7
I wonder where you are now

Verse 2:

Em Em7 Em6 Cmaj7
Hold me down, all the world's asleep

Em Em7 Em6 Cmaj7
I need you now, you got me on my knees

Em Em7 Em6 Cmaj7
I dream of you, and we talk of growing old

Em Em7 Em6 Cmaj7
But you said please don't

Bridge:

Em6 Cmaj7
So, Slide in Baby

Em6 Cmaj7
Together we'll fly

Em6 Cmaj7
I tried praying

Em6 Dsus2
But I don't know what you're saying to me

Chorus:

G
Now that you're mine

D Cadd9
we'll find a way of chasing the sun

Em7* D
Let me be the one, that shines with you

Asus4 Cadd9
In the morning, we don't know what to do

G D
We're two of a kind, we'll find a way

Cadd9
To do what we've done

Em7* D
Let me be the one, that shines with you

Cadd9 Asus4
And we can slide away

Cadd9 Asus4
Slide away

Cadd9 Asus4
Slide away

D B11
Away

Solo(Relative to capo):

e|------------0--------------------------------------------------0------------------------------------|
B|--------------0------------------------------------------------0------------------------------------|
G|-----/4~--------2-0----0h2-0---------------0-0h2p0-------------0-------/4-2~-0-----0h2-0------------|
D|------------------------------2~-------0h2---------2-0---0h2---2--------------------------2~--------|
A|-------------------------------------------------------2--------------------------------------------|
E|----------------------------------------------------------------------------------------------------|

e|-----------------------------0----------------------------------------------0-----------------------|
B|-----------------------------0----------------------------------------------0-----------------------|
G|-----------------------14b16-----16r14-12----------------------12-12h14-14b16-----16r14-12------------|
D|-------------------------------------------14~----------12h14-------------------------------14~-----|
A|------1-0-----------------------------------------12h14---------------------------------------------|
E|----------3/5p0-------------------------------------------------------------------------------------|

e|----------------------------------------------------------------------------------------------------|
B|----------------------------------------------------------------------------------------------------|
G|--------------12------------------------------------------------------------------------------------|
D|--------12h14---------------------------------------------------------------------------------------|
A|-12h14-------------14---12---10--------10h12-10\----------------------------------------------------|
E|----------------------------------------------------------------------------------------------------|

Slide out from the last note, play the Em chord then hold it


Start playing this after the second chord progression and go until the chorus:

Em7 Em6 Cmaj7 Em
e|------0----------0--------0--------0------|
B|----0---0------0---0----0---0----0---0----|
G|------------2---------0-------------------|
D|--0----------------------------2----------|
A|------------------------------------------|
E|--------------------------------------

guest
You may want to rate the tab now too:
select rating
Wanna post a correction for this tab? Suggest correction