Oops, an error
Loading. Please wait.

Some Might Say intro tab

version 1
version 1
by Oasis
37,244 views 9 this week
2 commentsread comments
1 2 3 4 5
x 9
add to favorites
×
Save as Personal and add changes to this tab that will be seen only by you. Learn more ›
×
You can save this tab as Personal to edit and correct it or add notes. All changes will be seen only by you. Learn more »
launch autoscroll
font size
0
reset
how to read this tab
guitar tuner
backing track
0:00
0:00
edit
Autoscroll
slow
fast
+/-
esc
set tempo
stop
Author
This is the intro guitar solo! Im nt sure if its all correct1 sori if its nt!
   
   D                                          Bsus2
  e-------------------------------------------------------|
  B-------------------------------------------------------|                 
  G--9b11-9-7-9-7-9b11-9b11-9-7-7-------7-9-9b11r9-7-9-7--|
  D-------------------------------7-7h9-------------------|              
  A-------------------------------------------------------|                 
  E-------------------------------------------------------|     

              G            D                        A
  e--------------------------------------------------|
  B--8-7-8-7-8s10-8-7-8-7-8s10-10-10-10-12-10-12-10--|
  G-----------9s11-9-7-9-7-9s11-11-11----------------|
  D--------------------------------------------------|
  A--------------------------------------------------|
  E--------------------------------------------------|            
Suggest correction
Creating personal tab
Creating personal tab
You can edit any tab online and save it as your Personal.

You can edit, replace or remove any tab part or add personal notes – all changes will be seen only by you.

Personal tabs can be accessed anytime from any device, even offline.
Learn more »
comments
print report bad tab
2 comments total.
0 reply
lloovvee 67 May 08, 2010 04:30 AM

i think it's right. just delete on - on the g string in the 2d part ;)

+1 reply
xandrani 10 Feb 01, 2013 04:25 PM

Just for easier reference, lloovvee meant this I think:

D Bsus2
e-------------------------------------------------------|
B-------------------------------------------------------|
G--9b11-9-7-9-7-9b11-9b11-9-7-7-------7-9-9b11r9-7-9-7--|
D-------------------------------7-7h9-------------------|
A-------------------------------------------------------|
E-------------------------------------------------------|

G D A
e--------------------------------------------------|
B--8-7-8-7-8s10-8-7-8-7-8s10-10-10-10-12-10-12-10--|
G----------9s11-9-7-9-7-9s11-11-11-----------------|
D--------------------------------------------------|
A--------------------------------------------------|
E--------------------------------------------------|

guest
You may want to rate the tab now too:
select rating
Wanna post a correction for this tab? Suggest correction