Oops, an error
Loading. Please wait.

Stand By Me Tab

version 1
version 1

Whole song

Interactive

117,079 views 162 this week
1 commentread comment
1 2 3 4 5
accurate
x 8
add to favorites
launch autoscroll
font size
0
reset
how to read this tab
guitar tuner
Autoscroll
slow
fast
+/-
esc
set tempo
stop
Help us to improve Ultimate-Guitar.com Take our survey!
×
[Intro| 

(Chords same as verse)
E|----------|
B|----------|
G|----------|
D|----------|
A|----------|
E|-12/3-----|

E|----------------------------------------------------|
B|----------------------------------------------------|
G|------12----12h14-14b16r14-12-14b16r14-12--12-12-11-|
D|12h14----14-----------------------------------------|
A|----------------------------------------------------|
E|----------------------------------------------------|

E|-----------------------------------------------------------|
B|-----------------------------------------------------------|
G|------12----12---------12----12h14-14b16r14-12-14b16r14-12-|
D|12h14----14------12h14----14-------------------------------|
A|-----------------------------------------------------------|
E|-----------------------------------------------------------|


[Verse]

  G,B11,C,C,D
E|3--0--0-0-2-|
B|3--0--1-1-3-|
G|0--2--0-0-2-|
D|0--1--2-0-0-|
A|2--2--3-2-x-|
E|3--0--3-0-x-|


[Pre-chorus]

  C,D,G,D,Em,A,D
E|0-2-3-2--0-0-2-|
B|1-3-3-3--0-2-3-|
G|0-2-0-2--0-2-2-|
D|2-0-0-0--2-2-0-|
A|3-x-2-x--2-0-x-|
E|3-x-3-x--0-x-x-|


[Chorus]

  G,D,Am,C,F,D,G
E|3-2--0-0-1-2-3-|
B|3-3--1-1-1-3-3-|
G|0-2--2-0-2-2-0-|
D|0-0--2-2-3-0-0-|
A|2-x--0-3-3-x-2-|
E|3-x--x-3-1-x-3-|


[Solo] Em,D,C
E|-----------------------|
B|-----------------------|
G|11h12p11---------------|
D|---------14-12h14-12---|
A|-----------------------|
E|-----------------------|  x3

Order|
Intro
Verse x2
Pre-chorus
Verse x2
Pre-chorus
Chorus x4
Verse x2
Pre-chorus
Chorus x4
Solo
Pre-chorus
Chorus x4



************************************

| x  Dead note
| h  Hammer-on
| p  Pull-off
| r  Release
| b  Bend
| /  Slide up

************************************
Suggest correction
What's this?
You can suggest a correction to this tab. Community and Mods will review your correction and vote to approve or reject it.
comments
print report bad tab
1 comment total.
+1 reply
Skag-Trendy07 199 wrote on August 12 2007, 06:09 pm

Instead of the F in the chorus I play Am. It sounds good to me. try it!

guest
You may want to rate the tab now too:
select rating
Please do not post tabs as comments. Select "correction" instead!