Oops, an error
Loading. Please wait.
We have an official Supersonic tab made by UG professional guitarists. Check out the tab »
×
by Oasis
6,055 views 6 this week
3 commentsread comments
1 2 3 4 5
x 4
add to favorites
×
Save as Personal and add changes to this tab that will be seen only by you. Learn more ›
×
You can save this tab as Personal to edit and correct it or add notes. All changes will be seen only by you. Learn more »
launch autoscroll
font size
0
reset
how to read this tab
guitar tuner
backing track
0:00
0:00
edit
Autoscroll
slow
fast
+/-
esc
set tempo
stop
Author
Difficulty
Oasis
Supersonic

Tuning - Standard
(EADGBE)

Chords Used

F#5 (244***)
E5  (022***)
A5  (*022**)
B5  (*244**)
c#5 (466***)
D   (*5777*)
A   (577655)
Em  (022000)
F#m (244222)

|-------0---------|-----------------|
|---------0-------|-0-----0---0---0-|
|-----2-----2-----|-2-----2---2---2-|
|---4---------4---|-2-----1---1---1-|
|-4-------------0-|-0--0--2---2---2-|
|-----------------|-----------------|

|-------0---------|-----------------|
|---------0-------|-0-----0---0---0-|
|-----2-----2-----|-2-----2---2---2-|
|---4---------4---|-2-----1---1---1-|
|-4-------------0-|-0--0--2---2---2-|
|-----------------|-----------------|

|-------0---------|-----------------|
|---------0-------|-0-----0---0---0-|
|-----2-----2-----|-2-----2---2---2-|
|---4---------4---|-2-----1---1---1-|
|-4-------------0-|-0--0--2---2---2-|
|-----------------|-----------------|

|-------0---------|-----------------|
|---------0-------|-0-----0---0---0-|
|-----2-----2-----|-2-----2---2---2-|
|---4---------4---|-2-----1---1---1-|
|-4-------------0-|-0--0--2---2---2-|
|-----------------|-----------------|

|-----------------|-----------------|
|-----------------|-----------------|
|------0--r2------|-----------------|
|--b4-------------|-----------------|
|-----------------|-----------------|
|-----------------|-----------------|

|-----------------|-----------------|
|-----------------|-----------------|
|-------------2-2-|-2-4-4-4-4-------|
|-4-4-2-4-4-2-2-2-|-2-4-4-4-4-------|
|-4-4-2-4-4-2-0-0-|-0-2-2-2-2-------|
|-2-2-0-2-2-0-----|-----------------|

..........................I NEED TO.. 

|-----------------|-----------------|
|-----------------|-----------------|
|-------------2-2-|-2-4-4-4-4-------|
|-4-4-2-4-4-2-2-2-|-2-4-4-4-4-------|
|-4-4-2-4-4-2-0-0-|-0-2-2-2-2-------|
|-2-2-0-2-2-0-----|-----------------|

.BE MY SELF...............I CANT BE..  

|-----------------|-----------------|
|-----------------|-----------------|
|-------------2-2-|-2-4-4-4-4-------|
|-4-4-2-4-4-2-2-2-|-2-4-4-4-4-------|
|-4-4-2-4-4-2-0-0-|-0-2-2-2-2-------|
|-2-2-0-2-2-0-----|-----------------|

.KNOW ONE ELSE...........I AM........

|-----------------|-----------------|
|-----------------|-----------------|
|-------------2-2-|-2-4-4-4-4-------|
|-4-4-2-4-4-2-2-2-|-2-4-4-4-4-------|
|-4-4-2-4-4-2-0-0-|-0-2-2-2-2-------|
|-2-2-0-2-2-0-----|-----------------|

.FEELING SUPERSONCIC GIVE ME GIN.....

|-----------------|-----------------|
|-----------------|-----------------|
|-------------2-2-|-2-4-4-4-4-------|
|-4-4-2-4-4-2-2-2-|-2-4-4-4-4-------|
|-4-4-2-4-4-2-0-0-|-0-2-2-2-2-------|
|-2-2-0-2-2-0-----|-----------------|

.AND TONIC YOU CAN HAVE IT ALL BUT...

|-----------------|-----------------|
|-----------------|-----------------|
|-------------2-2-|-2-4-4-4-4-------|
|-4-4-2-4-4-2-2-2-|-2-4-4-4-4-------|
|-4-4-2-4-4-2-0-0-|-0-2-2-2-2-------|
|-2-2-0-2-2-0-----|-----------------|

.BUT HOW MUCH DO YOU WANT IT...YOU...

|-----------------|-----------------|
|-----------------|-----------------|
|-------------2-2-|-2-4-4-4-4-------|
|-4-4-2-4-4-2-2-2-|-2-4-4-4-4-------|
|-4-4-2-4-4-2-0-0-|-0-2-2-2-2-------|
|-2-2-0-2-2-0-----|-----------------|

.MAKE ME LAUGH.........GIVE ME YOUR..

|-----------------|-----------------|
|-----------------|-----------------|
|-------------2-2-|-2-4-4-4-4-------|
|-4-4-2-4-4-2-2-2-|-2-4-4-4-4-------|
|-4-4-2-4-4-2-0-0-|-0-2-2-2-2-------|
|-2-2-0-2-2-0-----|-----------------|

.AUTOGRAPH.................SHE DONE..

|-----------------|-----------------|
|-----------------|-----------------|
|-------------2-2-|-2-4-4-4-4-------|
|-4-4-2-4-4-2-2-2-|-2-4-4-4-4-------|
|-4-4-2-4-4-2-0-0-|-0-2-2-2-2-------|
|-2-2-0-2-2-0-----|-----------------|

.IT WITH A DOCTOR ON A HELICOPTER....

|-----------------|-----------------|
|-----------------|-----------------|
|-------------2-2-|-2-4-4-4-4-------|
|-4-4-2-4-4-2-2-2-|-2-4-4-4-4-------|
|-4-4-2-4-4-2-0-0-|-0-2-2-2-2-------|
|-2-2-0-2-2-0-----|-----------------|

.SLIPPED IT IN A TISSUE SELLING......

|-----------------|-----------------|
|-----------------|-----------------|
|-------------2-2-|-2-4-4-4-4-------|
|-4-4-2-4-4-2-2-2-|-2-4-4-4-4-------|
|-4-4-2-4-4-2-0-0-|-0-2-2-2-2-------|
|-2-2-0-2-2-0-----|-----------------|

.THE BIG ISSUE AND THEY FIND OUT.....

|-----------------|-----------------|
|-----------------|-----------------|
|-6-6-6-6-6-6-6-6-|-6-6-6-6-6-6-6-6-|
|-6-6-6-6-6-6-6-6-|-6-6-6-6-6-6-6-6-|
|-4-4-4-4-4-4-4-4-|-4-4-4-4-4-4-4-4-|
|-----------------|-----------------|

.THAT KNOWONES GONNA TELL YOU WHAT 

|-----------------|-----------------|
|-----------------|-----------------|
|-------------2-2-|-2-4-4-4-4-------|
|-4-4-2-4-4-2-2-2-|-2-4-4-4-4-------|
|-4-4-2-4-4-2-0-0-|-0-2-2-2-2-------|
|-2-2-0-2-2-0-----|-----------------|

.IM ON ABOUT......................... 

|-----------------|-----------------|
|-----------------|-----------------|
|-6-6-6-6-6-6-6-6-|-6-6-6-6-6-6-6-6-|
|-6-6-6-6-6-6-6-6-|-6-6-6-6-6-6-6-6-|
|-4-4-4-4-4-4-4-4-|-4-4-4-4-4-4-4-4-|
|-----------------|-----------------|

.YOU NEED TO FIND A WAY FOR WHAT YOU.


|-----------------|-----------------|
|-----------------|-----------------|
|-6-6-6-6-6-6-6-6-|-6-6-6-6-6-6-6-6-|
|-6-6-6-6-6-6-6-6-|-6-6-6-6-6-6-6-6-|
|-4-4-4-4-4-4-4-4-|-4-4-4-4-4-4-4-4-|
|-----------------|-----------------|

.WANT TO SAY BUT BEFORE TOMMOROW.....

|-----------------|-------2-2-2-2-2-|
|-7-7-7-7-5-5-5-5-|-------2-2-2-2-2-|
|-7-7-7-7-6-6-6-6-|-0-0-0-3-2-2-2-2-|
|-7-7-7-7-7-7-7-7-|-2-2-2-4---------|
|-5-5-5-5-7-7-7-7-|-2-2-2-4---------|
|---------5-5-5-5-|-0-0-0-2---------|

.MY FREIND SAID HE TAKE YOU HOME.....

|-----------------|-------2-2-2-2-2-|
|-7-7-7-7-5-5-5-5-|-------2-2-2-2-2-|
|-7-7-7-7-6-6-6-6-|-0-0-0-3-2-2-2-2-|
|-7-7-7-7-7-7-7-7-|-2-2-2-4---------|
|-5-5-5-5-7-7-7-7-|-2-2-2-4---------|
|---------5-5-5-5-|-0-0-0-2---------|

.SITS IN A CAR AND ALL ALONG.........

|-----------------|-------2-2-2-2-2-|
|-7-7-7-7-5-5-5-5-|-------2-2-2-2-2-|
|-7-7-7-7-6-6-6-6-|-0-0-0-3-2-2-2-2-|
|-7-7-7-7-7-7-7-7-|-2-2-2-4---------|
|-5-5-5-5-7-7-7-7-|-2-2-2-4---------|
|---------5-5-5-5-|-0-0-0-2---------|

.HE LIVES UNDER A WATERFALL..........

|-----------------|-------2-2-2-2-2-|
|-7-7-7-7-5-5-5-5-|-------2-2-2-2-2-|
|-7-7-7-7-6-6-6-6-|-0-0-0-3-2-2-2-2-|
|-7-7-7-7-7-7-7-7-|-2-2-2-4---------|
|-5-5-5-5-7-7-7-7-|-2-2-2-4---------|
|---------5-5-5-5-|-0-0-0-2---------|

.NOBODY CAN SEE HIM NOBODY CAN EVER.

|-----------------|-------2-2-2-2-2-|
|-7-7-7-7-5-5-5-5-|-------2-2-2-2-2-|
|-7-7-7-7-6-6-6-6-|-0-0-0-3-2-2-2-2-|
|-7-7-7-7-7-7-7-7-|-2-2-2-4---------|
|-5-5-5-5-7-7-7-7-|-2-2-2-4---------|
|---------5-5-5-5-|-0-0-0-2---------|

.HEAR HIM CALL.......................

|----------------------------------------|
|----------------------------------------|
|----------------------------------------|
|-B1618-R1816-14-16-14-------14----------|
|----------------------16-14----16-14-16-|
|----------------------------------------|

|----------------------------------------|
|----------------------------------------|
|----------------17----------------------|
|-B1618-r1816-14----b1618-r1816-14-------|
|----------------------------------14h16-|
|----------------------------------------|

|----------------------------------------|
|----------------------------------------|
|----------------------------------------|
|-14h16p14----14-------------------------|
|----------16----------------------------|
|----------------------------------------|


|----------------------------------------|
|----------------------------------------|
|----------------------------------------|
|-B1618-R1816-14-16-14-------14----------|
|----------------------16-14----16-14-16-|
|----------------------------------------|

|----------------------------------------|
|----------------------------------------|
|----------------17----------------------|
|-B1618-r1816-14----b1618-r1816-14-------|
|----------------------------------14h16-|
|----------------------------------------|

|----------------------------------------|
|----------------------------------------|
|----------------------------------------|
|-14h16p14----r14-/2------0--2-----------|
|----------16----------b4----------------|
|----------------------------------------|


|-----------------|-----------------|
|-----------------|-----------------|
|-------------2-2-|-2-4-4-4-4-------|
|-4-4-2-4-4-2-2-2-|-2-4-4-4-4-------|
|-4-4-2-4-4-2-0-0-|-0-2-2-2-2-------|
|-2-2-0-2-2-0-----|-----------------|

.2nd verse

|-----------------|-----------------|
|-----------------|-----------------|
|-------------2-2-|-2-4-4-4-4-------|
|-4-4-2-4-4-2-2-2-|-2-4-4-4-4-------|
|-4-4-2-4-4-2-0-0-|-0-2-2-2-2-------|
|-2-2-0-2-2-0-----|-----------------|



|-----------------|-----------------|
|-----------------|-----------------|
|-------------2-2-|-2-4-4-4-4-------|
|-4-4-2-4-4-2-2-2-|-2-4-4-4-4-------|
|-4-4-2-4-4-2-0-0-|-0-2-2-2-2-------|
|-2-2-0-2-2-0-----|-----------------|



|-----------------|-----------------|
|-----------------|-----------------|
|-------------2-2-|-2-4-4-4-4-------|
|-4-4-2-4-4-2-2-2-|-2-4-4-4-4-------|
|-4-4-2-4-4-2-0-0-|-0-2-2-2-2-------|
|-2-2-0-2-2-0-----|-----------------|


|-----------------|-----------------|
|-----------------|-----------------|
|-------------2-2-|-2-4-4-4-4-------|
|-4-4-2-4-4-2-2-2-|-2-4-4-4-4-------|
|-4-4-2-4-4-2-0-0-|-0-2-2-2-2-------|
|-2-2-0-2-2-0-----|-----------------|


|-----------------|-----------------|
|-----------------|-----------------|
|-------------2-2-|-2-4-4-4-4-------|
|-4-4-2-4-4-2-2-2-|-2-4-4-4-4-------|
|-4-4-2-4-4-2-0-0-|-0-2-2-2-2-------|
|-2-2-0-2-2-0-----|-----------------|


|-----------------|-----------------|
|-----------------|-----------------|
|-------------2-2-|-2-4-4-4-4-------|
|-4-4-2-4-4-2-2-2-|-2-4-4-4-4-------|
|-4-4-2-4-4-2-0-0-|-0-2-2-2-2-------|
|-2-2-0-2-2-0-----|-----------------|


|-----------------|-----------------|
|-----------------|-----------------|
|-------------2-2-|-2-4-4-4-4-------|
|-4-4-2-4-4-2-2-2-|-2-4-4-4-4-------|
|-4-4-2-4-4-2-0-0-|-0-2-2-2-2-------|
|-2-2-0-2-2-0-----|-----------------|


|-----------------|-----------------|
|-----------------|-----------------|
|-------------2-2-|-2-4-4-4-4-------|
|-4-4-2-4-4-2-2-2-|-2-4-4-4-4-------|
|-4-4-2-4-4-2-0-0-|-0-2-2-2-2-------|
|-2-2-0-2-2-0-----|-----------------|


|-----------------|-----------------|
|-----------------|-----------------|
|-------------2-2-|-2-4-4-4-4-------|
|-4-4-2-4-4-2-2-2-|-2-4-4-4-4-------|
|-4-4-2-4-4-2-0-0-|-0-2-2-2-2-------|
|-2-2-0-2-2-0-----|-----------------|


|-----------------|-----------------|
|-----------------|-----------------|
|-6-6-6-6-6-6-6-6-|-6-6-6-6-6-6-6-6-|
|-6-6-6-6-6-6-6-6-|-6-6-6-6-6-6-6-6-|
|-4-4-4-4-4-4-4-4-|-4-4-4-4-4-4-4-4-|
|-----------------|-----------------|


|-----------------|-----------------|
|-----------------|-----------------|
|-------------2-2-|-2-4-4-4-4-------|
|-4-4-2-4-4-2-2-2-|-2-4-4-4-4-------|
|-4-4-2-4-4-2-0-0-|-0-2-2-2-2-------|
|-2-2-0-2-2-0-----|-----------------|


|-----------------|-----------------|
|-----------------|-----------------|
|-------------2-2-|-2-4-4-4-4-------|
|-4-4-2-4-4-2-2-2-|-2-4-4-4-4-------|
|-4-4-2-4-4-2-0-0-|-0-2-2-2-2-------|
|-2-2-0-2-2-0-----|-----------------|


|-----------------|-----------------|
|-----------------|-----------------|
|-6-6-6-6-6-6-6-6-|-6-6-6-6-6-6-6-6-|
|-6-6-6-6-6-6-6-6-|-6-6-6-6-6-6-6-6-|
|-4-4-4-4-4-4-4-4-|-4-4-4-4-4-4-4-4-|
|-----------------|-----------------|


|-----------------|-------2-2-2-2-2-|
|-7-7-7-7-5-5-5-5-|-------2-2-2-2-2-|
|-7-7-7-7-6-6-6-6-|-0-0-0-3-2-2-2-2-|
|-7-7-7-7-7-7-7-7-|-2-2-2-4---------|
|-5-5-5-5-7-7-7-7-|-2-2-2-4---------|
|---------5-5-5-5-|-0-0-0-2---------|


|-----------------|-------2-2-2-2-2-|
|-7-7-7-7-5-5-5-5-|-------2-2-2-2-2-|
|-7-7-7-7-6-6-6-6-|-0-0-0-3-2-2-2-2-|
|-7-7-7-7-7-7-7-7-|-2-2-2-4---------|
|-5-5-5-5-7-7-7-7-|-2-2-2-4---------|
|---------5-5-5-5-|-0-0-0-2---------|


|-----------------|-------2-2-2-2-2-|
|-7-7-7-7-5-5-5-5-|-------2-2-2-2-2-|
|-7-7-7-7-6-6-6-6-|-0-0-0-3-2-2-2-2-|
|-7-7-7-7-7-7-7-7-|-2-2-2-4---------|
|-5-5-5-5-7-7-7-7-|-2-2-2-4---------|
|---------5-5-5-5-|-0-0-0-2---------|


|-----------------|-------2-2-2-2-2-|
|-7-7-7-7-5-5-5-5-|-------2-2-2-2-2-|
|-7-7-7-7-6-6-6-6-|-0-0-0-3-2-2-2-2-|
|-7-7-7-7-7-7-7-7-|-2-2-2-4---------|
|-5-5-5-5-7-7-7-7-|-2-2-2-4---------|
|---------5-5-5-5-|-0-0-0-2---------|


|-----------------|-------2-2-2-2-2-|
|-7-7-7-7-5-5-5-5-|-------2-2-2-2-2-|
|-7-7-7-7-6-6-6-6-|-0-0-0-3-2-2-2-2-|
|-7-7-7-7-7-7-7-7-|-2-2-2-4---------|
|-5-5-5-5-7-7-7-7-|-2-2-2-4---------|
|---------5-5-5-5-|-0-0-0-2---------|


|----------------------------------------|
|----------------------------------------|
|----------------------------------------|
|-B1618-R1816-14-16-14-------14----------|
|----------------------16-14----16-14-16-|
|----------------------------------------|

|----------------------------------------|
|----------------------------------------|
|----------------17----------------------|
|-B1618-r1816-14----b1618-r1816-14-------|
|----------------------------------14h16-|
|----------------------------------------|

|----------------------------------------|
|----------------------------------------|
|----------------------------------------|
|-14h16p14----14-------------------------|
|----------16----------------------------|
|----------------------------------------|


|----------------------------------------|
|----------------------------------------|
|----------------------------------------|
|-B1618-R1816-14-16-14-------14----------|
|----------------------16-14----16-14-16-|
|----------------------------------------|

|----------------------------------------|
|----------------------------------------|
|----------------17----------------------|
|-B1618-r1816-14----b1618-r1816-14-------|
|----------------------------------14h16-|
|----------------------------------------|

|----------------------------------------|
|----------------------------------------|
|----------------------------------------|
|-14h16p14----r14-/2------0--2-----------|
|----------16----------b4----------------|
|----------------------------------------|

            
            
Suggest correction
Creating personal tab
Creating personal tab
You can edit any tab online and save it as your Personal.

You can edit, replace or remove any tab part or add personal notes – all changes will be seen only by you.

Personal tabs can be accessed anytime from any device, even offline.
Learn more »
comments
print report bad tab
3 comments total.
0 reply
JokerFighter 10 Dec 10, 2006 06:35 AM

Great tab 5 stars

0 reply
stoneman44 242 Sep 25, 2007 04:20 PM

annoying to read

0 reply
oasismad94 71 Aug 09, 2009 10:16 AM

wtf annoying 2 read?
its a tab not a ****ing computer game u weirdo!
as for the tab great!

guest
You may want to rate the tab now too:
select rating
Wanna post a correction for this tab? Suggest correction