Oops, an error
Loading. Please wait.
We have Chord Pro version of The Importance Of Being Idle.
It's the closest thing you can get to the original song and it has interactive parts. Check out the tab »
×
by Oasis
4,060 views 6 this week
no commentswrite comment
1 2 3 4 5
x 5
add to favorites
×
Save as Personal and add changes to this tab that will be seen only by you. Learn more ›
×
You can save this tab as Personal to edit and correct it or add notes. All changes will be seen only by you. Learn more »
launch autoscroll
font size
0
reset
guitar tuner
backing track
0:00
0:00
edit
Autoscroll
slow
fast
+/-
esc
set tempo
stop
Author
Unregistered
Nice song, nice bass tab.
Listen careful!
I'm sure my tab is almost perfect.
I put BRIDGE because i'm not sure if there's a part we can call CHORUS.
Hope you get it!

Alex.


INTRO
|---------------|---------------|---------------|---------|
|7--7-7-7-7-----|7--7-7-7-7-----|7--7-7-7-7-----|7----7/--|
|-------------7-|-------------7-|-------------7-|---7-----|
|---------------|---------------|---------------|---------|

|--------------------------------------|-verse...
|--------------5--7...----5h7-5--------|-verse...
|----------5h7------------------5--3-2-|-verse...
|5...----------------------------------|-verse...

NOW VERSES START
...|------------------------------------------|
...|------------------------------------------|
...|----------8----8--------------------7-----|
...|5----5---------------8----8----7----------|

|-----------------------------------------|
|7----7--------------10---10----9---------|
|----------8----8--------------------7----|
|-----------------------------------------|

|----------------------------------------------|
|7--7--7--7------------------------------------|
|-----------8--8--8--8--3--3--3--3--2----/7----|
|----------------------------------------------|

|-------------------------------------------------|
|7--7--7--7-------------10--10--10--10--9/---2----|
|-----------8--8--8--8----------------------------|
|-------------------------------------------------|

BRIDGE
|------------------------------------------------|
|------------7--7--7--7--------------7--7--7--7--|
|5--5--5--5/-------------5--5--5--5/-------------|
|------------------------------------------------|

|----------------------|
|------------7--7--7--7|
|5--5--5--5/-----------|
|----------------------|

Now listen careful and you will notice that sounds like this:
(Maybe in a live version it's more clear)
|-------------------|-------------------------|
|---3----3----3----3|---5----5----------------|
|-------------------|----------------7-----7--|
|1----1----1----1---|3----3-------0-----0-----|

|-----------------------------------------------------|-solo/riff...
|----------------/14-14-14-12-12-12-------------------|-solo/riff...
|5h7--5-----------------------------15-15-15-14-14-14-|-solo/riff...
|--------8--7-----------------------------------------|-solo/riff...

SOLO/RIFF
...|----------------|--------------|--------------|------------|
...|----------------|--------------|--------------|------------|
...|12--12--12--12--|8--8--8-7-----|-----------7--|------7--7--|
...|----------------|----------10--|8--8--8-10----|7--7--------|

|----------------|------------|--------------9--|-----------|
|----------------|------------|10--10--10-12----|9--9-------|
|12--12--12--12--|8--8--8--8/-|-----------------|------7----|
|----------------|------------|-----------------|-----------|

|----------------|------------|------------|------------|
|----------------|------------|------------|------------|
|12--12--12--12--|8--8--8--8--|------------|------7--7--|
|----------------|------------|8--8--8--8--|7--7--------|

|----------------|--------------|---------------------|
|----------------|--------------|---------------------|
|12--12--12--12--|8--8--8-7-----|----------7--7--7----|
|----------------|----------10--|8----7---------------|


Now comes again the bridge, but without the high notes at the end.
Instead you just play many times E.

And then comes again the intro. (Just the first part, you'll get it!).

Then Verses.

Again Bridge. (without high notes)

And for the end, another intro (only first part).


That's all!!!!!




Alex.

            
            
Suggest correction
Creating personal tab
Creating personal tab
You can edit any tab online and save it as your Personal.

You can edit, replace or remove any tab part or add personal notes – all changes will be seen only by you.

Personal tabs can be accessed anytime from any device, even offline.
Learn more »
comments
print report bad tab
guest
Wanna post a correction for this tab? Suggest correction