Oops, an error
Loading. Please wait.

Up In The Sky bass

version 1
version 1

Whole song

Interactive

by Oasis
1,373 views 1 this week
1 commentread comment
1 2 3 4 5
2 more votes to show rating
add to favorites
×
Save as Personal and add changes to this tab that will be seen only by you. Learn more ›
×
You can save this tab as Personal to edit and correct it or add notes. All changes will be seen only by you. Learn more »
launch autoscroll
font size
0
reset
guitar tuner
edit
Autoscroll
slow
fast
+/-
esc
set tempo
stop
Author
Difficulty
Up In the Sky from the album Definately Maybe.
The rythm is a bit tricky but you should be able to figure it out.

ALL VERSES
|----------------------------------------------------------------------|
|----------------------------------------------------------------------|
|----------------------------------------------------------------------|
|--3--3--0--3--0-----3--3--0--3--0-------------------------------------|

AFTER VERSE
|----------------------------------------------------------------------|
|----------------------------------------------------------------------|
|----------------3--3--3--3--------------------------------------------|
|--1--1--1--1-----------------3--3--0--3--0----3--3--0--3--0-----------|



|----------------------------------------------------------------------|
|----------------------------------------------------------------------|
|--0--0--0--0--0--0--0--0---3--3--3--3-3--3--3--3----------------------|
|----------------------------------------------------------3--3--0--3-0|
CHORUS


|----------------------------------------------------------------------|
|----------------------------------------------------------------------|
|--5--5--5--5--5--5--5--5-------------------5--3--3--3--3--3-----------|
|-------------------------------0--0--0--0-----------------------------|
BRIDGE

|----------------------------------------------------------------------|
|----------------------------------------------------------------------|
|--0--0--0--0--0--0--0--0--3--3--3--3--3--3--3--3----------------------|
|----------------------------------------------------------3--3--0--3-0|
OUTRO

Break with no bass then play all again
Easy...

            
            
Suggest correction
Creating personal tab
Creating personal tab
You can edit any tab online and save it as your Personal.

You can edit, replace or remove any tab part or add personal notes – all changes will be seen only by you.

Personal tabs can be accessed anytime from any device, even offline.
Learn more »
Give kudos to tab author, rate the tab!
1 2 3 4 5
comments
print report bad tab
1 comment total.
0 reply
BUTCHY13 10 Jun 09, 2015 02:23 AM

Lack of accuracy. Clearly wrong. The tab is confusingly laid out and it is also wrong in a lot of places. I can't think of any more words.

guest
You may want to rate the tab now too:
select rating
Wanna post a correction for this tab? Suggest correction