Oops, an error
Loading. Please wait.

Waiting For The Rapture bass

version 1
version 1

Whole song

Interactive

by Oasis
2,719 views 1 this week
1 commentread comment
1 2 3 4 5
1 last vote to show rating
add to favorites
×
Save as Personal and add changes to this tab that will be seen only by you. Learn more ›
×
You can save this tab as Personal to edit and correct it or add notes. All changes will be seen only by you. Learn more »
launch autoscroll
font size
0
reset
guitar tuner
backing track
0:00
0:00
edit
Autoscroll
slow
fast
+/-
esc
set tempo
stop
Tuning: (drop D)
G
D
A
D

Intro

G---------------------------------------------------------------|
D---------------------------------------------------------------|
A---------------------------------------------------------------|
D-5-7-7-7-7-5-7-7-7-7-5-7-7-7-7-5-7-7-7-7-5-0-0-0-0-2-3-3-3-3-5-|

Chorus
G-------------------------------------|
D-------------------------------------|
A-------------------------------------|
D-10-10-10-10-5-7-7-7-7-5-3-3-3-3-5-7-|
keep playing until chorus ends (you will know when noel has a slight pause and
lets it ring on 5th fret.
after that its just:
G---------------------------------|
D---------------------------------|
A---------------------------------|
D-5-7-7-7-7-5-0-0-0-0-2-3-3-3-3-5-|

Third section:

G-------------------------------------------------------------|
D-------------------------------------------------------------|
A-------------------------------------------------------------|
D-10-10-10-12-12-10-7-7-7-7-5-5-3-3-3-3-5-5-5-7-7-10-10-10-10-|
(keep playing 10 until it is repeated.
this bit is quite fast so you have to make sure you change fret pretty quick.

Outro:
G--------------------------------------------------------------------|
D--------------------------------------------------------------------|
A--------------------------------------------------------------------|
D-10-10-10-10-3-3-3-3 (keep repeating until the end and finish on 10-|th fret)

thankyou, this is my first tab so it might be a bit out but its all there (just minor things)

            
            
Suggest correction
Creating personal tab
Creating personal tab
You can edit any tab online and save it as your Personal.

You can edit, replace or remove any tab part or add personal notes – all changes will be seen only by you.

Personal tabs can be accessed anytime from any device, even offline.
Learn more »
Give kudos to tab author, rate the tab!
1 2 3 4 5
comments
print report bad tab
1 comment total.
0 reply
gregg freeman 31 Jun 19, 2009 03:57 PM

easy tune, good tab

guest
Wanna post a correction for this tab? Suggest correction