Oops, an error
Loading. Please wait.

Where Did It All Go Wrong tab

version 1
version 1

Whole song

Interactive

by Oasis
31,271 views 18 this week
4 commentsread comments
1 2 3 4 5
x 24
add to favorites
×
Save as Personal and add changes to this tab that will be seen only by you. Learn more ›
×
You can save this tab as Personal to edit and correct it or add notes. All changes will be seen only by you. Learn more »
launch autoscroll
font size
0
reset
how to read this tab
guitar tuner
edit
Autoscroll
slow
fast
+/-
esc
set tempo
stop
Where Did It All Go Wrong?

Track 7 on the superb 'Standing on the Shoulder of Giants' albumn.

Chords used:

Em7    020030
Dsus2  xx0230
D      xx0232
Cadd9  x32033
Em     022000
A7sus4 x02233
Asus4  x02230
C      x32010
G      320033
B      x24442

Intro
Spoken :- two, three, four

Em7  Dsus2 x 2

Verse 1

Em7                         Dsus2
You know that feeling you get,_________
Em7                         D  Dsus2
You feel your older than time._________
Cadd9              Dsus2                           Em7      D     Dsus2
You aint exactly sure______ if you've been away a while._______

Verse 2

Em7                     D       Dsus2
Do you keep the receipts________
Em7                     D       Dsus2
For the friends that you buy?______
Cadd9                    Dsus2                             A7sus4    Cadd9
And ain't it bitter sweet,______ you were only just getting by.

Chorus

     Em7
But I hope you know_____ that it won't let go,
         Dsus2                             Asus4
It sticks around with you until the day you die.________
       Em7
And I hope you know_____ that it's touch and go,
              Dsus2
I hope the tears don't stain the world that waits outside.
Asus4               C
Where did it all go__ wrong?___________

Em7  Dsus2 x 2

Verse 3

Em7                    Dsus2
And until you've repaid________
Em7                                Dsus2
the dreams you bought for your lies,_____
Cadd9              Dsus2                  Asus4
you'll be castaway____ alone under stormy skies,_____
Cadd9              Asus4         Cadd9
alone under stormy skies.____

Chorus

     Em7
But I hope you know_____ that it won't let go,
         Dsus2                             Asus4
It sticks around with you until the day you die.________
       Em7
And I hope you know_____ that it's touch and go,
              Dsus2
I hope the tears don't stain the world that waits outside.
Asus4               C
Where did it all go__ wrong?___________

Solo
 Cadd9        G        D          Em           Cadd9       G
---------------------|-----------------------|-----------------------|
--15b-----12v--------|-12h13p12--------------|-15b--------12v-----12-|
---------------------|---------14-12---------|-----------------------|
---------------------|----------------14-----|-----------------------|
---------------------|-----------------------|-----------------------|
---------------------|-----------------------|-----------------------|

D          Em         Cadd9       G           D           Em
--15b-------12v------|-----------------------|----------------------|
---------------------|-15b-------12----------|-7h8p7----------------|
---------------------|-----------------------|--------9p7---7h9-----|
---------------------|-----------------------|------------9---------|
---------------------|-----------------------|----------------------|
---------------------|-----------------------|----------------------|

Cadd9                            B
-------------------------------|------0-----------------------|
-------------------------------|------------------------------|
-------------0-0--2b--0---0-2-0|-2b-------2b-p---0------------|
----0-----0-------------2------|-------------------2p0--------|
--2----2-----------------------|-----------------------2p0----|
-------------------------------|----------------------------3b|


Outro

     Em7
But I hope you know_____ that it won't let go,
         Dsus2                             Asus4
It sticks around with you until the day you die.________
       Em7
And I hope you know_____ that it's touch and go,
              Dsus2
I hope the tears don't stain the world that waits outside.

    Em7
But I hope you know_____ that it won't let go,
         Dsus2                             Asus4
It sticks around with you until the day you die.________
       Em7
And I hope you know_____ that it's touch and go,
              Dsus2
I hope the tears don't stain the world that waits outside.
Asus4               Cadd9
Where did it all go__ wrong?___________


Thats it, simple but genius,

enjoy,
Stu

            
            
Suggest correction
Creating personal tab
Creating personal tab
You can edit any tab online and save it as your Personal.

You can edit, replace or remove any tab part or add personal notes – all changes will be seen only by you.

Personal tabs can be accessed anytime from any device, even offline.
Learn more »
comments
print report bad tab
4 comments total. Showing first comments.
+1 reply
gregg freeman 31 Sep 04, 2006 05:55 AM

nice for the solo, i was desperate to know that part!!

0 reply
marqiss 318 Dec 24, 2010 01:03 AM

the end of solo is that this way

-------------------------------|---------------------------|
-------------------------------|---------------------------|
-------------------------------|---------------------------|
----------5-5--7b--5----5-7-5--|-7b--7b-5------------------|
---5---5-------------7---------|-----------7p5-------------|
-7---7-------------------------|---------------7p5---3b----|

0 reply
VelvetAssassin 270 Apr 14, 2012 10:41 PM

5 more stars just for calling SOTSOG GREAT! :D

guest
Wanna post a correction for this tab? Suggest correction