Oops, an error
Loading. Please wait.
We have an official Wonderwall tab made by UG professional guitarists. Check out the tab »
×
by Oasis
36,268 views 6 this week
2 commentsread comments
1 2 3 4 5
x 9
add to favorites
×
Save as Personal and add changes to this tab that will be seen only by you. Learn more ›
×
You can save this tab as Personal to edit and correct it or add notes. All changes will be seen only by you. Learn more »
launch autoscroll
font size
0
reset
guitar tuner
backing track
0:00
0:00
edit
Autoscroll
slow
fast
+/-
esc
set tempo
stop
Author
Difficulty
-------------------------------------------------------------------------------
			     Wonderwall - Oasis
-------------------------------------------------------------------------------

Tabbed By: Sabliley
E-mail: holgui@hotmail.co.uk

Tuning: Standard EADG

First there is the intro with the acoustic guitar then the first verse and the bass 
in at the same time as the drums at the beginning of the second verse.

Verse 2

Come in just as the drums come in, a little bit after the beginning of the second verse.
G|-------2h4-4-4-2-4-2-------2-2---------2h4-4-4-2-4-2-------2-2-2-|
D|-2-2-2---------------4-4-4-------2-2-2---------------4-4-4-------|
A|-----------------------------------------------------------------|
E|-----------------------------------------------------------------|

G|-------2h4-4-4-2-4-2-------2-2---------2h4-4-4-2-4-2------------|
D|-2-2-2---------------4-4-4-------2-2-2--------------------------|
A|----------------------------------------------------------------|
E|----------------------------------------------------------------|

Bridge 1

G|---------------------------------------------------------------------------|
D|-0-0-0-0h2-2-2-2-4-4-4-4-4-2-4-4-4-2-4-4-0-0-0-2-2-2-4-4-4-4-4-4-4-4-4-4---|
A|---------------------------------------------------------------------------|
E|---------------------------------------------------------------------------|

G|-------------2-1---2-4-4-2-4-2-4-4-2-4-2-4-2-4-4-2-4-4---------------------|
D|-0-0-0-2-2-2-----4---------------------------------------------------------|
A|---------------------------------------------------------------------------|
E|---------------------------------------------------------------------------|

Chorus 1

G|---------------------2-2-2-----------------------------2-2-2---------------|
D|-0-0-0-0-0-4-4-4-4-4-------4-4-2-4-4-0-0-0-0-4-4-4-4-4-------4-4-2-4-4-----|
A|---------------------------------------------------------------------------|
E|---------------------------------------------------------------------------|

G|---------------------2-2-2-----------------------------2-2-2---------------|
D|---0-0-0-0-4-4-4-4-4-------4-4-2-4-4-0-0-0-0-4-4-4-4-4-------4-2-4-4-4-2---|
A|---------------------------------------------------------------------------|
E|---------------------------------------------------------------------------|

Verse 3

G|-------2-2-2-------2h4-4-4-2-4-2-------2-2-2-------2h4-4-4-2-4-2-----------|
D|-4-4-4-------2-2-2---------------4-4-4-------2-2-2-------------------------|
A|---------------------------------------------------------------------------|
E|---------------------------------------------------------------------------|

G|-------2-2-2-------2h4-4-4-2-4-2-------2-2-2-------2h4-4-4-2-4-2-----------|
D|-4-4-4-------2-2-2---------------4-4-4-------2-2-2-------------------------|
A|---------------------------------------------------------------------------|
E|---------------------------------------------------------------------------|
Bridge 2

G|---------------------------------------------------------------------------|
D|-0-0-0-0h2-2-2-2-4-4-4-4-4-2-4-4-4-2-4-4-0-0-0-2-2-2-4-4-4-4-4-4-4-4-4-4---|
A|---------------------------------------------------------------------------|
E|---------------------------------------------------------------------------|

G|-------------2-1---2-4-4-2-4-2-4-4-2-4-2-4-2-4-4-2-4-4---------------------|
D|-0-0-0-2-2-2-----4---------------------------------------------------------|
A|---------------------------------------------------------------------------|
E|---------------------------------------------------------------------------|

Chorus 2

G|---------------------2-2-2-----------------------------2-2-2---------------|
D|-0-0-0-0-0-4-4-4-4-4-------4-4-2-4-4-0-0-0-0-4-4-4-4-4-------4-4-2-4-4-----|
A|---------------------------------------------------------------------------|
E|---------------------------------------------------------------------------|

G|---------------------2-2-2-----------------------------2-2-2-------------------|
D|---0-0-0-0-4-4-4-4-4-------4-4-2-4-4-0-0-0-0-4-4-4-4-4-------4-2-4-4-4-2-------|
A|-------------------------------------------------------------------------------|
E|-------------------------------------------------------------------------------|

Chorus 3

G|---------------------2-2-2-----------------------------2-2-2---------------|
D|-0-0-0-0-0-4-4-4-4-4-------4-4-2-4-4-0-0-0-0-4-4-4-4-4-------4-4-2-4-4-----|
A|---------------------------------------------------------------------------|
E|---------------------------------------------------------------------------|

G|---------------------2-2-2-----------------------------2-2-2---------------|
D|---0-0-0-0-4-4-4-4-4-------4-4-2-4-4-0-0-0-0-4-4-4-4-4-------4-2-4-4-4-2---|
A|---------------------------------------------------------------------------|
E|---------------------------------------------------------------------------|

Outro

G|---------------------2-2-2-----------------------------2-2-2---------------|
D|---0-0-0-0-4-4-4-4-4-------4-4-2-4-4-0-0-0-0-4-4-4-4-4-------4-4-2-4-4-----|
A|---------------------------------------------------------------------------|
E|---------------------------------------------------------------------------|

G|---------------------2-2-2-----------------------------2-2-2---------------|
D|---0-0-0-0-4-4-4-4-4-------4-4-2-4-4-0-0-0-0-4-4-4-4-4-------4-2-4-4-4-2---|
A|---------------------------------------------------------------------------|
E|---------------------------------------------------------------------------|

G|---------------------2-2-2-----------------------------2-2-2---------------|
D|---0-0-0-0-4-4-4-4-4-------4-4-2-4-4-0-0-0-0-4-4-4-4-4-------4-4-2-4-4-----|
A|---------------------------------------------------------------------------|
E|---------------------------------------------------------------------------|

G|---------------------2-2-2-----------------------------2-2-2-2-2-----------|
D|---0-0-0-0-4-4-4-4-4-------4-4-2-4-4-0-0-0-0-4-4-4-4-4-----------4---------|
A|---------------------------------------------------------------------------|
E|---------------------------------------------------------------------------|

| / slide up
| \ slide down
| h hammer-on
| p pull-off
| ~ vibrato
| + harmonic
| x Mute note
Suggest correction
Creating personal tab
Creating personal tab
You can edit any tab online and save it as your Personal.

You can edit, replace or remove any tab part or add personal notes – all changes will be seen only by you.

Personal tabs can be accessed anytime from any device, even offline.
Learn more »
comments
print report bad tab
2 comments total.
-1 reply
LukeRaybould 423 Sep 29, 2015 11:32 AM

I'm gonna rate this 4/5. All is right (Maybe not as I play it) but it is Confusing to read.

0 reply
RickyRubio 504 Oct 04, 2015 12:28 PM

Clearly wrong. Clearly wrong. Do not know why this tab has been rated with 4 stars. It has an horrible formating. I am not able to play this song with this shit TAB!!!

guest
You may want to rate the tab now too:
select rating
Wanna post a correction for this tab? Suggest correction