Oops, an error
Loading. Please wait.

Maelstrom tab

version 1
version 1

Whole song

Interactive

3,133 views 3 this week
1 commentread comment
1 2 3 4 5
3 more votes to show rating
add to favorites
×
Save as Personal and add changes to this tab that will be seen only by you. Learn more ›
×
You can save this tab as Personal to edit and correct it or add notes. All changes will be seen only by you. Learn more »
launch autoscroll
font size
0
reset
how to read this tab
guitar tuner
edit
Autoscroll
slow
fast
+/-
esc
set tempo
stop
-------------------------------------------------------------------------------
                             Mælstrøm - Oathbreaker
-------------------------------------------------------------------------------
Tabbed by:  Derek Miller
E-mail:  millerderekscott@gmail.com
Official Band Site:  http://www.deathwishinc.com/bands/128/

Tuning:  Drop D (DADGBE)



Main riff Guitar 1
E|--------------------------------------|
B|--------------------------------------|
G|--------2--------2--------2-----5-----|x3
D|-----3--------3--------3-----------3--|
A|-----------------------------4--------|
D|--0--------0--------0-----------------|

E|--------------------------------------|
B|--------------------------------------|
G|-----------4-----------------3--------|
D|-----3--------3--------1--------1-----|
A|--3-----3--------3--2-----2--------2--|
D|--------------------------------------|

Main riff Guitar 2

E|5-----5-----6--5-----5-----5--------8--------------|
B|---6-----6--------6-----6-----6--------6-----------|
G|---------------------------------6-----------------|x3
D|---------------------------------------------------|
A|---------------------------------------------------|
D|---------------------------------------------------|

E|-----------7-----------------6--------|
B|-----6--------5--------4--------4-----|
G|--5-----5--------5--4-----4--------4--|
D|--------------------------------------|
A|--------------------------------------|
D|--------------------------------------|

Break Guitar 1

E|-----
B|-----
G|----- x1
D|--3--
A|--5--
D|--0--

Break Guitar 2

E|--------5--|
B|-----6-----|
G|-----------| x7
D|-----------|
A|-----------|
D|--0--------|

Riff 2 Guitar 1
E|--------------------------------------------------|
B|--------------------------------------------------|
G|--------------------------------------------------|
D|-----3--3-----3--3-----3--3-----3--3-----3--3-----|
A|-----5--5-----5--5-----5--5-----5--5-----5--5-----|
D|--0--------0--------7--------7--------3--------5--|

Riff 2 Guitar 2
E|--5--8--5--10--3--5--------|
B|---------------------6--5--|
G|---------------------------|
D|---------------------------|
A|---------------------------|
D|---------------------------|

Riff 3 Guitar 2
E|------13--12--13------12--11--12------10--9--10------8--7--8--|
B|--10--------------10--------------10-------------10-----------|
G|--------------------------------------------------------------|
D|--------------------------------------------------------------|
A|--------------------------------------------------------------|
D|--------------------------------------------------------------|

End Guitar 1
E|-----
B|-----
G|-----
D|--3--
A|--5--
D|--0--

End Guitar 2
E|--5--
B|-----
G|-----
D|-----
A|-----
D|-----

            
            
Suggest correction
Creating personal tab
Creating personal tab
You can edit any tab online and save it as your Personal.

You can edit, replace or remove any tab part or add personal notes – all changes will be seen only by you.

Personal tabs can be accessed anytime from any device, even offline.
Learn more »
Give kudos to tab author, rate the tab!
1 2 3 4 5
comments
print report bad tab
1 comment total.
0 reply
Wuztastic 158 Oct 14, 2013 01:11 PM

made an error
Main riff Guitar 1 should be:
E|--------------------------------------
B|--------------------------------------
G|--------2--------2--------2-----5----- x3
D|-----3--------3--------3-----------3--
A|-----------------------------4--------
D|--0--------0--------0-----------------
and
Main riff Guitar 2

E|5-----5-----6--5-----5-----5--------8--------------
B|---6-----6--------6-----6-----6--------6-----------
G|---------------------------------6-----------------x3
D|---------------------------------------------------
A|---------------------------------------------------
D|---------------------------------------------------

E|-----------7-----------------6--------
B|-----6--------5--------4--------4-----
G|--5-----5--------5--4-----4--------4--
D|--------------------------------------
A|--------------------------------------
D|--------------------------------------

just a few minor changes

guest
You may want to rate the tab now too:
select rating
Wanna post a correction for this tab? Suggest correction