Oops, an error
Loading. Please wait.

Stay Here Accroche-Moi tab

version 1
version 1

Whole song

  • First version. Could be better, so you guys are welcome to fix anything.

Interactive

1,078 views 18 this week
1 commentread comment
1 2 3 4 5
1 last vote to show rating
add to favorites
×
Save as Personal and add changes to this tab that will be seen only by you. Learn more ›
×
You can save this tab as Personal to edit and correct it or add notes. All changes will be seen only by you. Learn more »
launch autoscroll
font size
0
reset
how to read this tab
guitar tuner
edit
Autoscroll
slow
fast
+/-
esc
set tempo
stop
About this tab version
First version. Could be better, so you guys are welcome to fix anything. Was this info helpful? Yes No
-----------------------------------------------------------------------------
Band: Oathbreaker
Song: Stay Here / Accroche-Moi
Album: Rheia
-----------------------------------------------------------------------------


Drop B (B F# B E G# c#)

Figured out from watching the Audiotree session. Not too sure about the chorus but it sounds alright.


[Intro](2x):

c#|-0---0---0---0---0---0---0---0---|-0---0---0---0---0---0---0---0---|
G#|-6---6---6---6---6---6---6---6---|-6---6---6---6---6---6---6---6---|
E |-5-5-5-5-5-5-5-5-5-5-5-5-5-5-5-5-|-5---5---5---5---5---5---5---5---|
B |-7-7-7-7-7-7-7-7-7-7-7-7-7-7-7-7-|-7-7-7-7-7-7-7-7-7-7-7-7-7-7-7-7-| 
F#|-0-0-0-0-0-0-0-0-0-0-0-0-0-0-0-0-|-5-5-5-5-5-5-5-5-5-5-5-5-5-5-5-5-|
B |---------------------------------|-0-0-0-0-0-0-0-0-0-0-0-0-0-0-0-0-|

c#|---------------------------------|-0---0---0---0---0---0---0---0---|
G#|---------------------------------|-0---0---0---0---0---0---0---0---|
E |-2---2---2---2---5---5---4---4---|-2---2---2---2---2---2---2---2---|
B |-2-2-2-2-2-2-2-2-2-2-2-2-2-2-2-2-|-3-3-3-3-3-3-3-3-3-3-3-3-3-3-3-3-|
F#|-2-2-2-2-2-2-2-2-2-2-2-2-2-2-2-2-|-3-3-3-3-3-3-3-3-3-3-3-3-3-3-3-3-|
B |---------------------------------|-3-3-3-3-3-3-3-3-3-3-3-3-3-3-3-3-|


[Verse 1]

Roam the gloaming of the highway
c#|-0---0---0---0---0---0---0---0---|-0---0---0---0---0---0---0---0---|
G#|-6---6---6---6---6---6---6---6---|-6---6---6---6---6---6---6---6---|
E |-5-5-5-5-5-5-5-5-5-5-5-5-5-5-5-5-|-5---5---5---5---5---5---5---5---|
B |-7-7-7-7-7-7-7-7-7-7-7-7-7-7-7-7-|-7-7-7-7-7-7-7-7-7-7-7-7-7-7-7-7-| 
F#|-0-0-0-0-0-0-0-0-0-0-0-0-0-0-0-0-|-5-5-5-5-5-5-5-5-5-5-5-5-5-5-5-5-|
B |---------------------------------|-0-0-0-0-0-0-0-0-0-0-0-0-0-0-0-0-|

I'll follow your hesitant steps
c#|---------------------------------|-0---0---0---0---0---0---0---0---|
G#|---------------------------------|-0---0---0---0---0---0---0---0---|
E |-2---2---2---2---5---5---4---4---|-2---2---2---2---2---2---2---2---|
B |-2-2-2-2-2-2-2-2-2-2-2-2-2-2-2-2-|-3-3-3-3-3-3-3-3-3-3-3-3-3-3-3-3-|
F#|-2-2-2-2-2-2-2-2-2-2-2-2-2-2-2-2-|-3-3-3-3-3-3-3-3-3-3-3-3-3-3-3-3-|
B |---------------------------------|-3-3-3-3-3-3-3-3-3-3-3-3-3-3-3-3-|

Observing the hastening world beside us
c#|-0---0---0---0---0---0---0---0---|-0---0---0---0---0---0---0---0---|
G#|-6---6---6---6---6---6---6---6---|-6---6---6---6---6---6---6---6---|
E |-5-5-5-5-5-5-5-5-5-5-5-5-5-5-5-5-|-5---5---5---5---5---5---5---5---|
B |-7-7-7-7-7-7-7-7-7-7-7-7-7-7-7-7-|-7-7-7-7-7-7-7-7-7-7-7-7-7-7-7-7-| 
F#|-0-0-0-0-0-0-0-0-0-0-0-0-0-0-0-0-|-5-5-5-5-5-5-5-5-5-5-5-5-5-5-5-5-|
B |---------------------------------|-0-0-0-0-0-0-0-0-0-0-0-0-0-0-0-0-|

I lean forward to slow you down
c#|---------------------------------|-0---0---0---0---0---0---0---0---|
G#|---------------------------------|-0---0---0---0---0---0---0---0---|
E |-2---2---2---2---5---5---4---4---|-2---2---2---2---2---2---2---2---|
B |-2-2-2-2-2-2-2-2-2-2-2-2-2-2-2-2-|-3-3-3-3-3-3-3-3-3-3-3-3-3-3-3-3-|
F#|-2-2-2-2-2-2-2-2-2-2-2-2-2-2-2-2-|-3-3-3-3-3-3-3-3-3-3-3-3-3-3-3-3-|
B |---------------------------------|-3-3-3-3-3-3-3-3-3-3-3-3-3-3-3-3-|

Nobody watches us from their glass boxes
c#|-0---0---0---0---0---0---0---0---|-0---0---0---0---0---0---0---0---|
G#|-6---6---6---6---6---6---6---6---|-6---6---6---6---6---6---6---6---|
E |-5-5-5-5-5-5-5-5-5-5-5-5-5-5-5-5-|-5---5---5---5---5---5---5---5---|
B |-7-7-7-7-7-7-7-7-7-7-7-7-7-7-7-7-|-7-7-7-7-7-7-7-7-7-7-7-7-7-7-7-7-| 
F#|-0-0-0-0-0-0-0-0-0-0-0-0-0-0-0-0-|-5-5-5-5-5-5-5-5-5-5-5-5-5-5-5-5-|
B |---------------------------------|-0-0-0-0-0-0-0-0-0-0-0-0-0-0-0-0-|

The days are moving fast ahead
c#|---------------------------------|-0---0---0---0---0---0---0---0---|
G#|---------------------------------|-0---0---0---0---0---0---0---0---|
E |-2---2---2---2---5---5---4---4---|-2---2---2---2---2---2---2---2---|
B |-2-2-2-2-2-2-2-2-2-2-2-2-2-2-2-2-|-3-3-3-3-3-3-3-3-3-3-3-3-3-3-3-3-|
F#|-2-2-2-2-2-2-2-2-2-2-2-2-2-2-2-2-|-3-3-3-3-3-3-3-3-3-3-3-3-3-3-3-3-|
B |---------------------------------|-3-3-3-3-3-3-3-3-3-3-3-3-3-3-3-3-|

Shifting in between day and night
c#|-0---0---0---0---0---0---0---0---|-0---0---0---0---0---0---0---0---|
G#|-6---6---6---6---6---6---6---6---|-6---6---6---6---6---6---6---6---|
E |-5-5-5-5-5-5-5-5-5-5-5-5-5-5-5-5-|-5---5---5---5---5---5---5---5---|
B |-7-7-7-7-7-7-7-7-7-7-7-7-7-7-7-7-|-7-7-7-7-7-7-7-7-7-7-7-7-7-7-7-7-| 
F#|-0-0-0-0-0-0-0-0-0-0-0-0-0-0-0-0-|-5-5-5-5-5-5-5-5-5-5-5-5-5-5-5-5-|
B |---------------------------------|-0-0-0-0-0-0-0-0-0-0-0-0-0-0-0-0-|

As the roads curl before them, we're alone
c#|---------------------------------|-0---0---0---0---0---0---0---0---|
G#|---------------------------------|-0---0---0---0---0---0---0---0---|
E |-2---2---2---2---5---5---4---4---|-2---2---2---2---2---2---2---2---|
B |-2-2-2-2-2-2-2-2-2-2-2-2-2-2-2-2-|-3-3-3-3-3-3-3-3-3-3-3-3-3-3-3-3-|
F#|-2-2-2-2-2-2-2-2-2-2-2-2-2-2-2-2-|-3-3-3-3-3-3-3-3-3-3-3-3-3-3-3-3-|
B |---------------------------------|-3-3-3-3-3-3-3-3-3-3-3-3-3-3-3-3-|

[Chorus]

Hand out your troubles, give me your pain
c#|---------------------------------|-0---0---0---0---0---0---0---0---|
G#|-----------------1---1---0---0---|-0---0---0---0---0---0---0---0---|
E |-1---1---1---1---1---1---1---1---|-2---2---2---2---2---2---2---2---|
B |-2-2-2-2-2-2-2-2-2-2-2-2-2-2-2-2-|-3-3-3-3-3-3-3-3-3-3-3-3-3-3-3-3-|
F#|-2-2-2-2-2-2-2-2-2-2-2-2-2-2-2-2-|-3-3-3-3-3-3-3-3-3-3-3-3-3-3-3-3-|
B |-2-2-2-2-2-2-2-2-2-2-2-2-2-2-2-2-|-3-3-3-3-3-3-3-3-3-3-3-3-3-3-3-3-|

I'll plant them next to the thorns in my veins
c#|---------------------------------|-0---0---0---0---0---0---0---0---|
G#|-----------------1---1---0---0---|-6---6---6---6---6---6---6---6---|
E |-1---1---1---1---1---1---1---1---|-5-5-5-5-5-5-5-5-5-5-5-5-5-5-5-5-|
B |-2-2-2-2-2-2-2-2-2-2-2-2-2-2-2-2-|-0-0-0-0-0-0-0-0-0-0-0-0-0-0-0-0-|
F#|-2-2-2-2-2-2-2-2-2-2-2-2-2-2-2-2-|---------------------------------|
B |-2-2-2-2-2-2-2-2-2-2-2-2-2-2-2-2-|---------------------------------|

Tie your limbs to my crippled life
c#|-0---0---0---0---0---0---0---0---|-5---5---5---5---5---5---5---5---|
G#|-5---5---5---5---5---5---5---5---|-6---6---6---6---6---6---6---6---|
E |-4-4-4-4-4-4-4-4-4-4-4-4-4-4-4-4-|-7---7---7---7---7---7---7---7---|
B |-6-6-6-6-6-6-6-6-6-6-6-6-6-6-6-6-|-7-7-7-7-7-7-7-7-7-7-7-7-7-7-7-7-|
F#|---------------------------------|-5-5-5-5-5-5-5-5-5-5-5-5-5-5-5-5-|
B |---------------------------------|-0-0-0-0-0-0-0-0-0-0-0-0-0-0-0-0-|

Hang on, I'll carry you around
c#|-0---0---0---0---0---0---0---0---|-0---0---0---0---0---0---0---0---|
G#|-5---5---5---5---3---3---3---3---|-0---0---0---0---0---0---0---0---|
E |-4-4-4-4-4-4-4-4-2-2-2-2-2-2-2-2-|-2---2---2---2---2---2---2---2---|
B |-6-6-6-6-6-6-6-6-0-0-0-0-0-0-0-0-|-3-3-3-3-3-3-3-3-3-3-3-3-3-3-3-3-|
F#|---------------------------------|-3-3-3-3-3-3-3-3-3-3-3-3-3-3-3-3-|
B |---------------------------------|-3-3-3-3-3-3-3-3-3-3-3-3-3-3-3-3-|


[Post-chorus] (2x):

Guitar 1:

c#|-0---0---0---0---0---0---0---0---|-0---0---0---0---0---0---0---0---|
G#|-6---6---6---6---6---6---6---6---|-6---6---6---6---6---6---6---6---|
E |-5-5-5-5-5-5-5-5-5-5-5-5-5-5-5-5-|-5---5---5---5---5---5---5---5---|
B |-7-7-7-7-7-7-7-7-7-7-7-7-7-7-7-7-|-7-7-7-7-7-7-7-7-7-7-7-7-7-7-7-7-| 
F#|-0-0-0-0-0-0-0-0-0-0-0-0-0-0-0-0-|-5-5-5-5-5-5-5-5-5-5-5-5-5-5-5-5-|
B |---------------------------------|-0-0-0-0-0-0-0-0-0-0-0-0-0-0-0-0-|

c#|---------------------------------|-0---0---0---0---0---0---0---0---|
G#|---------------------------------|-0---0---0---0---0---0---0---0---|
E |-2---2---2---2---5---5---4---4---|-2---2---2---2---2---2---2---2---|
B |-2-2-2-2-2-2-2-2-2-2-2-2-2-2-2-2-|-3-3-3-3-3-3-3-3-3-3-3-3-3-3-3-3-|
F#|-2-2-2-2-2-2-2-2-2-2-2-2-2-2-2-2-|-3-3-3-3-3-3-3-3-3-3-3-3-3-3-3-3-|
B |---------------------------------|-3-3-3-3-3-3-3-3-3-3-3-3-3-3-3-3-|


Guitar 2 (brush and let ring):

c#|-5-----------------------7-------|-8-------------------------------|
G#|-6-----------------------6-------|-6-------------------------------|
E |-5-----------------------5-------|-5-------------------------------|
B |-7-----------------------7-------|-0-------------------------------|
F#|---------------------------------|---------------------------------|
B |---------------------------------|---------------------------------|

c#|-5---------------4---------------|-5-----------------------7-------|
G#|-5---------------5---------------|-6-----------------------6-------|
E |-4---------------4---------------|-5-----------------------5-------|
B |-6---------------6---------------|-7-----------------------7-------|
F#|---------------------------------|---------------------------------|
B |---------------------------------|---------------------------------|


[Verse 2]

Storms lay down and come to rest
c#|-0---0---0---0---0---0---0---0---|-0---0---0---0---0---0---0---0---|
G#|-6---6---6---6---6---6---6---6---|-6---6---6---6---6---6---6---6---|
E |-5-5-5-5-5-5-5-5-5-5-5-5-5-5-5-5-|-5---5---5---5---5---5---5---5---|
B |-7-7-7-7-7-7-7-7-7-7-7-7-7-7-7-7-|-7-7-7-7-7-7-7-7-7-7-7-7-7-7-7-7-| 
F#|-0-0-0-0-0-0-0-0-0-0-0-0-0-0-0-0-|-5-5-5-5-5-5-5-5-5-5-5-5-5-5-5-5-|
B |---------------------------------|-0-0-0-0-0-0-0-0-0-0-0-0-0-0-0-0-|

Confusion returns to how it's always been
c#|---------------------------------|-0---0---0---0---0---0---0---0---|
G#|---------------------------------|-0---0---0---0---0---0---0---0---|
E |-2---2---2---2---5---5---4---4---|-2---2---2---2---2---2---2---2---|
B |-2-2-2-2-2-2-2-2-2-2-2-2-2-2-2-2-|-3-3-3-3-3-3-3-3-3-3-3-3-3-3-3-3-|
F#|-2-2-2-2-2-2-2-2-2-2-2-2-2-2-2-2-|-3-3-3-3-3-3-3-3-3-3-3-3-3-3-3-3-|
B |---------------------------------|-3-3-3-3-3-3-3-3-3-3-3-3-3-3-3-3-|

I let you replace the taste of my pain
c#|-0---0---0---0---0---0---0---0---|-0---0---0---0---0---0---0---0---|
G#|-6---6---6---6---6---6---6---6---|-6---6---6---6---6---6---6---6---|
E |-5-5-5-5-5-5-5-5-5-5-5-5-5-5-5-5-|-5---5---5---5---5---5---5---5---|
B |-7-7-7-7-7-7-7-7-7-7-7-7-7-7-7-7-|-7-7-7-7-7-7-7-7-7-7-7-7-7-7-7-7-| 
F#|-0-0-0-0-0-0-0-0-0-0-0-0-0-0-0-0-|-5-5-5-5-5-5-5-5-5-5-5-5-5-5-5-5-|
B |---------------------------------|-0-0-0-0-0-0-0-0-0-0-0-0-0-0-0-0-|

With the comforting of your frail skin
c#|---------------------------------|-0---0---0---0---0---0---0---0---|
G#|---------------------------------|-0---0---0---0---0---0---0---0---|
E |-2---2---2---2---5---5---4---4---|-2---2---2---2---2---2---2---2---|
B |-2-2-2-2-2-2-2-2-2-2-2-2-2-2-2-2-|-3-3-3-3-3-3-3-3-3-3-3-3-3-3-3-3-|
F#|-2-2-2-2-2-2-2-2-2-2-2-2-2-2-2-2-|-3-3-3-3-3-3-3-3-3-3-3-3-3-3-3-3-|
B |---------------------------------|-3-3-3-3-3-3-3-3-3-3-3-3-3-3-3-3-|


[Chorus]

Hand out your troubles, give me your pain
c#|---------------------------------|-0---0---0---0---0---0---0---0---|
G#|-----------------1---1---0---0---|-0---0---0---0---0---0---0---0---|
E |-1---1---1---1---1---1---1---1---|-2---2---2---2---2---2---2---2---|
B |-2-2-2-2-2-2-2-2-2-2-2-2-2-2-2-2-|-3-3-3-3-3-3-3-3-3-3-3-3-3-3-3-3-|
F#|-2-2-2-2-2-2-2-2-2-2-2-2-2-2-2-2-|-3-3-3-3-3-3-3-3-3-3-3-3-3-3-3-3-|
B |-2-2-2-2-2-2-2-2-2-2-2-2-2-2-2-2-|-3-3-3-3-3-3-3-3-3-3-3-3-3-3-3-3-|

I'll plant them next to the thorns in my veins
c#|---------------------------------|-0---0---0---0---0---0---0---0---|
G#|-----------------1---1---0---0---|-6---6---6---6---6---6---6---6---|
E |-1---1---1---1---1---1---1---1---|-5-5-5-5-5-5-5-5-5-5-5-5-5-5-5-5-|
B |-2-2-2-2-2-2-2-2-2-2-2-2-2-2-2-2-|-0-0-0-0-0-0-0-0-0-0-0-0-0-0-0-0-|
F#|-2-2-2-2-2-2-2-2-2-2-2-2-2-2-2-2-|---------------------------------|
B |-2-2-2-2-2-2-2-2-2-2-2-2-2-2-2-2-|---------------------------------|

Tie your limbs to my crippled life
c#|-0---0---0---0---0---0---0---0---|-5---5---5---5---5---5---5---5---|
G#|-5---5---5---5---5---5---5---5---|-6---6---6---6---6---6---6---6---|
E |-4-4-4-4-4-4-4-4-4-4-4-4-4-4-4-4-|-7---7---7---7---7---7---7---7---|
B |-6-6-6-6-6-6-6-6-6-6-6-6-6-6-6-6-|-7-7-7-7-7-7-7-7-7-7-7-7-7-7-7-7-|
F#|---------------------------------|-5-5-5-5-5-5-5-5-5-5-5-5-5-5-5-5-|
B |---------------------------------|-0-0-0-0-0-0-0-0-0-0-0-0-0-0-0-0-|

Hang on, I'll carry you around
c#|-0---0---0---0---0---0---0---0---|-0-------------------------------|
G#|-5---5---5---5---3---3---3---3---|-0-------------------------------|
E |-4-4-4-4-4-4-4-4-2-2-2-2-2-2-2-2-|-2-------------------------------|
B |-6-6-6-6-6-6-6-6-0-0-0-0-0-0-0-0-|-3-------------------------------|
F#|---------------------------------|-3-------------------------------|
B |---------------------------------|-3-------------------------------|
Suggest correction
Creating personal tab
Creating personal tab
You can edit any tab online and save it as your Personal.

You can edit, replace or remove any tab part or add personal notes – all changes will be seen only by you.

Personal tabs can be accessed anytime from any device, even offline.
Learn more »
Give kudos to tab author, rate the tab!
1 2 3 4 5
comments
print report bad tab
1 comment total.
0 reply
seandgronbeck 10 May 03, 2017 09:27 PM

Nice thanks.

guest
You may want to rate the tab now too:
select rating
Wanna post a correction for this tab? Suggest correction