Oops, an error
Loading. Please wait.
We have Chord Pro version of Hey Ya.
It's the closest thing you can get to the original song and it has interactive parts. Check out the tab »
×
40,864 views 108 this week
3 commentsread comments
1 2 3 4 5
x 5
add to favorites
×
Save as Personal and add changes to this tab that will be seen only by you. Learn more ›
×
You can save this tab as Personal to edit and correct it or add notes. All changes will be seen only by you. Learn more »
launch autoscroll
font size
0
reset
transpose
0
reset
display chords
guitar tuner
edit
Autoscroll
slow
fast
+/-
esc
set tempo
stop
Author
Strumming
There is no strumming pattern for this song yet. and get +5 IQ
-------------------------------------------------------------------------------
                             Hey Ya - Mat Weddle
-------------------------------------------------------------------------------

Tabbed by: snapitsmariel
Email: snapitzmariel@aim.cm

This is for the people who don't have a capo or like me, lost it.

Tuning: EADGBe

The whole song is basically:

e|---0-----0----0---2--4---4----|
B|---0-----2----2---4--5---5----|
G|---1-----2----2---4--6---6----|
D|---2-----2----2---4--6---6----|
A|---2---0-----0----2--4---4----|
E|-0----------------------------|



            
            
Suggest correction
Creating personal tab
Creating personal tab
You can edit any tab online and save it as your Personal.

You can edit, replace or remove any tab part or add personal notes – all changes will be seen only by you.

Personal tabs can be accessed anytime from any device, even offline.
Learn more »
comments
print report bad tab
3 comments total.
+1 reply
Calvinexp 58 Nov 06, 2006 05:29 PM

that's a pretty good version; i however do have a capo, but i am sure many will appriciate this as have i and it is always cool to learn the same song various ways and in different keys.

0 reply
Skogsgrisen 10 May 10, 2009 01:41 AM

Great! Thanks for that. :)

0 reply
Skogsgrisen 10 May 10, 2009 02:18 AM

A little thing you can add in the A chord.

e|---0-----0----0---2--4---4----|
B|---0-----0h2--2---4--5---5----|
G|---1-----2----2---4--6---6----|
D|---2-----2----2---4--6---6----|
A|---2---0-----0----2--4---4----|
E|-0----------------------------|

A hammer on, on the C#.

guest
You may want to rate the tab now too:
select rating
Wanna post a correction for this tab? Suggest correction