Oops, an error
Loading. Please wait.

Best Friends For Life tab

34 views 1 this week
no commentswrite comment
1 2 3 4 5
3 more votes to show rating
add to favorites
×
Save as Personal and add changes to this tab that will be seen only by you. Learn more ›
×
You can save this tab as Personal to edit and correct it or add notes. All changes will be seen only by you. Learn more »
launch autoscroll
font size
0
reset
how to read this tab
guitar tuner
edit
Autoscroll
slow
fast
+/-
esc
set tempo
stop
Author
Difficulty
About this tab version
This version is a guitar version of the vibraphone that is played throughout the whole song. The only way to get to lower end of the song is to sacrifice some notes :/ (at least without changing the tuning or whatever). Was this info helpful? Yes No
Chord Shapes (These specific shapes make the whole thing a little bit easier to play, as opposed to just 
playing whatever is written.)

(Use these shapes when it is written at the top of a section.)

[Chords Used]
       D     F#    G    F#m    Bm   Em
e|-----2-----6-----3-----2-----2-----0---------------------------------------------|
B|-----3-----7-----3-----2-----3-----0---------------------------------------------|
G|-----2-----6-----4-----2-----4-----0---------------------------------------------|
D|-----4-----8-----5-----4-----4-----2---------------------------------------------|
A|-----5-----9-----5-----4-----2-----2---------------------------------------------|
E|-----x-----x-----3-----2-----x-----0---------------------------------------------|

[Verse]
           D                            F#                  G
e|----------------------------|----------------------|-----------------------------|
B|------3----------3-----5----|-----7----------------|-3-----------3-------3---2---|
G|------2---2------2---2------|-----6---6---9--------|-4---4-------4---4-----------|
D|--4-------4---4------4------|-8-------8---8---8----|-----5---5-------5-----------|
A|--5-----------5-------------|-9-----------9-----9--|---------5-------------------|
E|----------------------------|----------------------|-3-----------3---------------|

        D           F#m             Bm                     F#m
e|-------------------------|------------------------|------------------------------|
B|--3-----------2----------|------------------------|------------------------------|
G|--2---2-------2---2------|-4-----------4----------|-2-----------2----------------|
D|------4---4-------4---4--|-----4-----------4------|-----4-----------4------------|
A|--5-------5-----------4--|-2-------2---2-------2--|---------4-----------4--------|
E|--------------2----------|------------------------|-2-----------2----------------|

          G                        F#m                   Em
e|-------------------------|------------------------|------------------------------|
B|-------------------------|------------------------|------------------------------|
G|--4-----------4----------|-2-----------2----------|-0-----------0----------------|
D|------5-----------5------|-----4-----------4------|-----2-----------2------------|
A|----------5-----------5--|---------4-----------4--|---------2-----------2--------|
E|--3-----------3----------|-2-----------2----------|-0-----------0----------------|

   (You don't do the chord shapes from here to the end)
        D                      Em7                         Bm             
e|-------------------------|------------------------|------------------------------|
B|-------------------------|------------------------|------------------------------|
G|-------------------------|------------------------|------------------------------|
D|--4-----------4----------|-2-----------2----------|-0-----------4----------------|
A|------5-----------5------|-----4-----------4------|-----2-----------2------------|
E|--5-------5---5-------5--|-3-------3---3-------3--|-2-------2---2-------2--------|


************************************

| x   Dead note

************************************

            
            
Suggest correction
Creating personal tab
Creating personal tab
You can edit any tab online and save it as your Personal.

You can edit, replace or remove any tab part or add personal notes – all changes will be seen only by you.

Personal tabs can be accessed anytime from any device, even offline.
Learn more »
Give kudos to tab author, rate the tab!
1 2 3 4 5
comments
print report bad tab
guest
You may want to rate the tab now too:
select rating
Wanna post a correction for this tab? Suggest correction