Oops, an error
Loading. Please wait.

Nevena chords

88 views 3 this week
no commentswrite comment
1 2 3 4 5
3 more votes to show rating
add to favorites
×
Save as Personal and add changes to this tab that will be seen only by you. Learn more ›
×
You can save this tab as Personal to edit and correct it or add notes. All changes will be seen only by you. Learn more »
launch autoscroll
font size
0
reset
transpose
0
reset
display chords
guitar tuner
edit
Autoscroll
slow
fast
+/-
esc
set tempo
stop
Author
Strumming
There is no strumming pattern for this song yet. and get +5 IQ
This is how I play the song. Suggestions and corrections welcome!


[Synth line]

e|--8--7--5--3--2--0-------------3------------2------------------------0--2--3--|
B|--------------------3--1--0---------0-----------------------0--1--3-----------|
G|---------------------------------------2---------2----0--2--------------------|
D|------------------------------------------------------------------------------|
A|------------------------------------------------------------------------------|
E|------------------------------------------------------------------------------|

e|-8---7-5--3--2--0-------------3------------2------------------------0--2--3--2--|
B|-------------------3--1--0---------0-----------------------0--1--3--------------|
G|--------------------------------------2---------2----0--2-----------------------|
D|--------------------------------------------------------------------------------|
A|--------------------------------------------------------------------------------|
E|--------------------------------------------------------------------------------|


[Intro]

C Bm A G
C Bm A G F#


[Verse 1]
    G
I spend my life inside a hole
   Em
I don't have any place to go
   Bm
I only have you
               C
My friend, my home
   G
I try to fall asleep at night
      Em
The stars forever burning bright
   Bm
I look up at them
                     C
They don't look back at me


[Chorus]
C
Did you almost say
          Bm
I'm only dying
      A
And sorry 
           G
I let you down
C
Maybe now
                    Bm
I want you here to warm me
            A
You're the only 
                        G
One who doesn't get me down


[Verse 2]
   G
I wake up from my dreams afraid
   Em
I miss the summer sun and shade
       Bm
This winter snow
              C
Is freezing my heart
   G
I only have a little time
     Em
The more I dream, the more I die
      Bm
The pieces of the puzzle
                       C
I found hard to put together


[Chorus]
C
Did you almost say
          Bm
I'm only dying
      A
And sorry 
           G
I let you down
C
Maybe now
                    Bm
I want you here to warm me
            A
You're the only 
                        G
One who doesn't get me down


[Outro]

C Bm A G
C Bm A G F#

[Outro Synth line]

e|--8--7--5--3--2--0-------------3------------2------------------------0--2--3--|
B|--------------------3--1--0---------0-----------------------0--1--3-----------|
G|---------------------------------------2---------2----0--2--------------------|
D|------------------------------------------------------------------------------|
A|------------------------------------------------------------------------------|
E|------------------------------------------------------------------------------|

e|-8---7-5--3--2--0-------------3------------2------------------------0--2--3--5--7--8--10--12--14--15--|
B|-------------------3--1--0---------0-----------------------0--1--3------------------------------------|
G|--------------------------------------2---------2----0--2---------------------------------------------|
D|------------------------------------------------------------------------------------------------------|
A|------------------------------------------------------------------------------------------------------|
E|------------------------------------------------------------------------------------------------------|

Suggest correction
Creating personal tab
Creating personal tab
You can edit any tab online and save it as your Personal.

You can edit, replace or remove any tab part or add personal notes – all changes will be seen only by you.

Personal tabs can be accessed anytime from any device, even offline.
Learn more »
Give kudos to tab author, rate the tab!
1 2 3 4 5
comments
print report bad tab
guest
You may want to rate the tab now too:
select rating
Wanna post a correction for this tab? Suggest correction