Oops, an error
Loading. Please wait.

Slowly We Rot Tab

version 1
version 1

Whole song

Interactive

19,051 views 27 this week
5 commentsread comments
1 2 3 4 5
x 8
add to favorites
launch autoscroll
font size
0
reset
how to read this tab
guitar tuner
×
Best way to learn
"Slowly We Rot"
Autoscroll
slow
fast
+/-
esc
set tempo
stop
[Intro] (x3)
e|-------------------------|---------------------|--------------------------|
B|-------------------------|---------------------|--------------------------|
G|-------------------------|---------------------|--------------------------|
D|-------------------------|---------------------|--------------------------|
A|----8--7-----6--5------8-|-7-----6--5---(5)\5--|-----8--7-----6--5-----8--|
E|--5-------5--------5-----|----5-----3---(3)\3--|--5--------5--------5-----|

e|---------------------|--------------------------|--------------------|
B|---------------------|--------------------------|--------------------|
G|---------------------|--------------------------|--------------------|
D|---------------------|--------------------------|--------------------|
A|-7-----6--5-------5--|-----8--7-----6--5-----8--|-7-----6--5------5--|
E|----5-------------3--|--5--------5--------5-----|----5------------3--|

e|--------------------------|------------------------|
B|--------------------------|------------------------|
G|--------------------------|------------------------|
D|--------------------------|------------------------|
A|-----8--7-----6--5-----8--|-7-----6--5----2--2-----|
E|--5--------5--------5-----|----5----------0--0--0--|

[Verse 1]
e|-------------------|--------------------| 
B|-------------------|--------------------| (x2)
G|-------------------|--------------------| 
D|-------------------|--------------------| 
A|--2--2--6---5---3--|--2--2---8---7---3--|
E|--0--0--4---3---1--|--0--0---6---5---1--|

[Solo 1]
e|------------------|---------------------|----------------------|
B|------------------|---------------------|----------------------| (x5)
G|---5*-------------|-0~~~~~~~~~~~~*------|-^11^9*------9~~~~~*--|
D|------------------|---------------------|----------------------|
A|------------------|---------------------|----------------------|
E|------------------|---------------------|----------------------|
gradually dive       let the bar           dive 2 1/2steps while hammering
down 4 whole steps   return to normal      and dive last note 1 step and
with whammy bar      position&use vibrato  use vibrato

(tr=TRILL)
e|--------------------------|-------------------------------------|
B|--------tr.---------------|----H--------------------------------|
G|-^12*--9^12-------12/18\0-|-0*-4-----(4)*------(4)*-------------|
D|--------------------------|-------------------------------------|
A|--------------------------|-------------------------------------|
E|--------------------------|-------------------------------------|
  dive  trill w/            dive        dive      dive and
&release vibrato            and         and       vibrato together
                            release     release    

e|------------------|----------tr.--------------------------H--H------|
B|------------------|-7-4--6--4^6-0--7-4-6-7-4-7^4----------b1-b1&1/2-|
G|--(4)-------------|------------------------------6^4-6^4--6--6------|
D|------------------|-------------------------------------------------|
A|-------0*---------|-------------------------------------------------|
E|------------------|-------------------------------------------------|
      dive and
      release and
      dive gradually

e|-------------H----|----------------------------|
B|-(6)--6~~~~~-0*---|----------------------------|
G|------------------|----------------------------|
D|------------------|----------------------------|
A|------------------|--0*------------------------|
E|------------------|----------------------------|END OF 1ST SOLO
release to  pullup    pull up and gradually dive 'til 
true pitch  1 pitch   slack
            & release

[Chorus] (x4)
e|------------------------|----------------------| 
B|------------------------|----------------------|
G|------------------------|----------------------| 
D|------------------------|----------------------| 
A|--2--2-2--2--3--2-2--2--|--5--2-2--2--5--4--3--|
E|--0--0-0--0--1--0-0--0--|--3--0-0--0--3--2--1--|

e|--------------------------------|------------------------| 
B|--------------------------------|------------------------|
G|--------------------------------|------------------------|
D|--------------------------------|------------------------| 
A|--------------------------------|-----------------5------|
E|-0-2-2-2-2-2-2-2-0-2-2-2-2-2-2-2|-3-2-2-2-2-2-2-2-3------|
    P.M..............................................

[Solo 2]
  F#5                           B5
e|-17^14--------14^17^14--------14^17^14--------14^17^14--------14^-|
B|------14^17^14--------14^17^14--------14^17^14---------14^17^14---|
G|------------------------------------------------------------------|
D|------------------------------------------------------------------|
A|------------------------------------------------------------------|
E|------------------------------------------------------------------|
this is only half of a bar

 F#5                             C5
e|-17^14--------14^17^14--------14^17^14--------14^17^14---------14^-|
B|------14^17^14--------14^17^14--------14^17^14---------14^17^14----|
G|-------------------------------------------------------------------|
D|-------------------------------------------------------------------|
A|-------------------------------------------------------------------|
E|-------------------------------------------------------------------|
this is only a half a bar

 F#5                            B5
e|-17^14--------14^17^14--------14^17^14--------14-17--16--14---|
B|------14^17^14--------14^17^14--------14^17^14----------------|
G|--------------------------------------------------------------|
D|--------------------------------------------------------------|
A|--------------------------------------------------------------|
E|--------------------------------------------------------------|
this is only half a bar

 A#5                            F5
e|-17^16^14-----14------------B1--14------------|
B|---------17^14--17^14-17^14-17----17-16-14^16-|
G|----------------------------------------------|
D|----------------------------------------------|
A|----------------------------------------------|
E|----------------------------------------------|
this is only half a bar/END OF THE HALF BARS

 F#5        B5                F#5                     C5
e|-------------------------------------------------------------------|
B|-^14---B1--------------------14------------------------------------|
G|----16-16~~~~16-14-16-14--------14-17^14-18^14-16-14-16~~~~~~(16)\-|
D|------------------------16-14--------------------------------------|
A|-------------------------------------------------------------------|
E|-------------------------------------------------------------------|

 F#5        B5                 A#5              F5
e|----------------------------------------------------------------|
B|-B1-11-14-11--------------------11------------------------------|
G|-13---------13--11^13^11----------13-11-13-13-13-~~~~~~~~(13)\--|
D|--------------13--------14-14-14--------------------------------|
A|----------------------------------------------------------------|
E|----------------------------------------------------------------|

  F#5 //B5//////C5 A#5   F#5//B5 F#5// A#5              F5
e|---------------------|-------------------------------------------------|
B|---------------------|-------------------------------------------------|
G|---------------------|-------------------------------------------------|
D|--(4)^6*~~~~~~~~6^7--|-----------------------------------(7)*----------|
A|---------------------|-------------------------------------------------|
E|---------------------|-------------------------------------------------|
dive
w/vibrato and dive
again

e|------------------------------------|----------------------------------|
B|------------------------------------|----------------------------------|
G|------------------------------------|----------------------------------|
D|------------------------------------|----------------------------------|
A|------------------------------------|----------------------------------|
E|--2------(2)*-----------------------|--(2)-----------------------------|
         dive and release

[Outro] (x4)
e|------------------------------|---------------------------| 
B|------------------------------|---------------------------|
G|------------------------------|---------------------------| 
D|------------------------------|---------------------------| 
A|-------------------3----------|------------------6--5--8--|
E|--0-0-0-0-0-0-0-0--1--0-0-0-0-|-0-0-0-0-0-0-0-0--4--3--6--|
    P.M...............   P.M........................

[Chorus] (x4)
e|------------------------|----------------------| 
B|------------------------|----------------------|
G|------------------------|----------------------| 
D|------------------------|----------------------| 
A|--2--2-2--2--3--2-2--2--|--5--2-2--2--5--4--3--|
E|--0--0-0--0--1--0-0--0--|--3--0-0--0--3--2--1--|

e|--------------------------------|------------------------| 
B|--------------------------------|------------------------|
G|--------------------------------|------------------------|
D|--------------------------------|------------------------| 
A|--------------------------------|-----------------5------|
E|-0-2-2-2-2-2-2-2-0-2-2-2-2-2-2-2|-3-2-2-2-2-2-2-2-3------|
    P.M..............................................

[Outro] (x4)
e|---------------------------------|--------------------------------|
B|---------------------------------|--------------------------------|
G|---------------------------------|--------------------------------|
D|---------------------------------|--------------------------------|
A|---------------------------------|--------------------------3-----|
E|-0-0-0-0-0-0-0-0-0-0-0-0-0-0-0-0-|0-0-0-0-0-0-0-0-0-0-0-0---1-----|
    P.M.......................................................

e|---------------------------------|---------------------------------|
B|---------------------------------|---------------------------------|
G|---------------------------------|---------------------------------| 
D|---------------------------------|---------------------------------| 
A|---------------------------------|------------------6------5-------|
E|-0-0-0-0-0-0-0-0-0-0-0-0-0-0-0-0-|0-0-0-0-0-0-0-0---4------3-------|
  P.M..............................................


************************************

| *    Natural harmonic
| /    Slide up
| \    Slide down
| b    Bend
| (n)  Ghost note
| ~    Vibrato

************************************
Suggest correction
comments
print report bad tab
5 comments total. Showing first comments.
0 reply
aut.RiPPeR 219 Jan 05, 2006 01:29 AM

AWESOME TAB! 5 stars and I printed it out!

Thanks
chris

0 reply
Satan Man 1,286 Jan 14, 2007 01:49 AM

dude whats the solo backing? if u put it on it wud be much appreciated! ta

0 reply
highplains 10 Jun 05, 2008 07:57 PM

holy cow, this is way too hardcore for me, nice tune

guest
You may want to rate the tab now too:
select rating
Wanna post a correction for this tab? Suggest correction