Oops, an error
Loading. Please wait.

Falsa Moral Tab

by OBK
35 views 1 this week
no commentswrite comment
1 2 3 4 5
3 more votes to show rating
add to favorites
launch autoscroll
font size
0
reset
how to read this tab
guitar tuner
Autoscroll
slow
fast
+/-
esc
set tempo
stop
Help us to improve Ultimate-Guitar.com Take our survey!
×
Hola a todos, saben ya hay una version mia de esta canción aqui,
pero les cuento q esta es la precisa suena igual al disco y
tiene el intro y todo, bueno sin mas palabreos ahi les va...

Intro
e---------------------------------------------------
B---2-2-2-3-5-5-3-3-3-3-2-0------0-0-2-3-3-5-2-0----
G------------------------------------------------2--
D---------------------------------------------------
A---0-----------------------------------------------
E---------------------------------------------------

e---------------------------------------------------
B-------3-3-3-5-2-0-0-0----------3-3-3-5-2-0-0------
G-----------------------------------------------2---
D---4-4----------------------2-2--------------------
A---------------------------------------------------
E---------------------------------------------------

     A            D
     La más bella historia
     E           A
     que se pueda contar
     Bm              F#m
     lleva escrito el dolor
                     D
     que produce un amor
                    E
     que nadie entenderá.
       A            D
     Siempre todo a escondidas
        E           A
     siempre mirando atrás
      Bm            F#m
     solo LA oscuridad
                         D
     puede ser nuestro hogar
                       E
     dónde crecerá este amor
       A                  D      E
     No, no quiero más clases de falsa moral
                      A      E   F#m
     que nadie es culpable por amar
           D                 Bm
     en mi pecho no late la razón
              D             E       A
     solo el más sincero y puro amor
                   D                 E
     No hay mar en el mundo ni fuerza capaz
                  A       E   F#m
     que pueda este fuego apagar
                 D                 Bm
     solo el tiempo puede ser nuestro juez
           D          E     A
     Te quise, quiero y querré.

     A            D
     Que dificil lo nuestro
     E           A
     Que bonito a la vez
     Bm              F#m
     Es tan duro tener
                     D
     que buscar los porques
                    E
     a esta situacion

     A            D
     nuestro amor es la isla
     E           A    E       F#m
     el tesoro eres tu  oh dios
                   Bm
     con mi vida dare
                     D
     solo el brazo a torcer,
                    E
     bien lo sabes mi amor


Para cualquier algo, insulto o pedido escribanme a mi correo...
Suggest correction
Give kudos to tab author, rate the tab!
1 2 3 4 5
comments
print report bad tab
guest
You may want to rate the tab now too:
select rating
Wanna post a correction for this tab? Suggest correction